ISO-10303-21;
HEADER;
FILE_DESCRIPTION (( 'STEP AP203' ),
    '1' );
FILE_NAME ('8b27.STEP',
    '2023-02-12T12:58:35',
    ( '' ),
    ( '' ),
    'SwSTEP 2.0',
    'SolidWorks 2019',
    '' );
FILE_SCHEMA (( 'CONFIG_CONTROL_DESIGN' ));
ENDSEC;

DATA;
#1 = COORDINATED_UNIVERSAL_TIME_OFFSET ( 1, 0, .AHEAD. ) ;
#2 = ADVANCED_FACE ( 'NONE', ( #212 ), #142, .F. ) ;
#3 = FACE_OUTER_BOUND ( 'NONE', #200, .T. ) ;
#4 = DIRECTION ( 'NONE',  ( 1.000000000000000000, 0.000000000000000000, 0.000000000000000000 ) ) ;
#5 = LINE ( 'NONE', #217, #61 ) ;
#6 = ORIENTED_EDGE ( 'NONE', *, *, #146, .F. ) ;
#7 = AXIS2_PLACEMENT_3D ( 'NONE', #26, #49, #180 ) ;
#8 = VERTEX_POINT ( 'NONE', #68 ) ;
#9 = CC_DESIGN_PERSON_AND_ORGANIZATION_ASSIGNMENT ( #227, #131, ( #173 ) ) ;
#10 = ORIENTED_EDGE ( 'NONE', *, *, #146, .T. ) ;
#11 = APPROVAL_STATUS ( 'not_yet_approved' ) ;
#12 = EDGE_CURVE ( 'NONE', #86, #50, #36, .T. ) ;
#13 = AXIS2_PLACEMENT_3D ( 'NONE', #97, #194, #193 ) ;
#14 = APPROVAL_DATE_TIME ( #48, #151 ) ;
#15 = PRODUCT_DEFINITION_SHAPE ( 'NONE', 'NONE',  #112 ) ;
#16 = LOCAL_TIME ( 13, 58, 35.00000000000000000, #174 ) ;
#17 = DIRECTION ( 'NONE',  ( 1.000000000000000000, 0.000000000000000000, 0.000000000000000000 ) ) ;
#18 = CYLINDRICAL_SURFACE ( 'NONE', #219, 1.500000000000000222 ) ;
#19 = CARTESIAN_POINT ( 'NONE',  ( -0.6500000000000000222, 0.000000000000000000, 125.0000000000000000 ) ) ;
#20 = CC_DESIGN_PERSON_AND_ORGANIZATION_ASSIGNMENT ( #44, #137, ( #112 ) ) ;
#21 = MECHANICAL_CONTEXT ( 'NONE', #179, 'mechanical' ) ;
#22 = VECTOR ( 'NONE', #105, 1000.000000000000000 ) ;
#23 = PERSON_AND_ORGANIZATION ( #38, #198 ) ;
#24 = PERSON_AND_ORGANIZATION ( #38, #198 ) ;
#25 = PERSON_AND_ORGANIZATION ( #38, #198 ) ;
#26 = CARTESIAN_POINT ( 'NONE',  ( 0.000000000000000000, 0.000000000000000000, 1.500000000000000000 ) ) ;
#27 = ORIENTED_EDGE ( 'NONE', *, *, #108, .F. ) ;
#28 = EDGE_LOOP ( 'NONE', ( #241, #242 ) ) ;
#29 = EDGE_CURVE ( 'NONE', #243, #205, #98, .T. ) ;
#30 = APPROVAL_PERSON_ORGANIZATION ( #62, #151, #246 ) ;
#31 = CARTESIAN_POINT ( 'NONE',  ( 0.000000000000000000, 0.000000000000000000, 1.500000000000000000 ) ) ;
#32 = DIRECTION ( 'NONE',  ( 1.000000000000000000, 0.000000000000000000, -0.000000000000000000 ) ) ;
#33 = SHAPE_DEFINITION_REPRESENTATION ( #15, #133 ) ;
#34 = ADVANCED_FACE ( 'NONE', ( #106 ), #145, .T. ) ;
#35 = CARTESIAN_POINT ( 'NONE',  ( 0.000000000000000000, 0.000000000000000000, 125.0000000000000000 ) ) ;
#36 = CIRCLE ( 'NONE', #107, 1.500000000000000222 ) ;
#37 = EDGE_CURVE ( 'NONE', #103, #181, #248, .T. ) ;
#38 = PERSON ( 'NEURÈENÝ', 'NEURÈENÝ', 'NEURÈENÝ', ('NEURÈENÝ'), ('NEURÈENÝ'), ('NEURÈENÝ') ) ;
#39 = DIRECTION ( 'NONE',  ( 0.000000000000000000, 0.000000000000000000, 1.000000000000000000 ) ) ;
#40 = PERSON_AND_ORGANIZATION ( #38, #198 ) ;
#41 = AXIS2_PLACEMENT_3D ( 'NONE', #128, #208, #147 ) ;
#42 = DATE_TIME_ROLE ( 'classification_date' ) ;
#43 = APPROVAL ( #213, 'NEURÈENÝ' ) ;
#44 = PERSON_AND_ORGANIZATION ( #38, #198 ) ;
#45 = AXIS2_PLACEMENT_3D ( 'NONE', #141, #65, #201 ) ;
#46 = CARTESIAN_POINT ( 'NONE',  ( 1.500000000000000222, 1.836970198721030181E-16, 1.500000000000000000 ) ) ;
#47 = ORIENTED_EDGE ( 'NONE', *, *, #117, .F. ) ;
#48 = DATE_AND_TIME ( #73, #109 ) ;
#49 = DIRECTION ( 'NONE',  ( 0.000000000000000000, 0.000000000000000000, 1.000000000000000000 ) ) ;
#50 = VERTEX_POINT ( 'NONE', #226 ) ;
#51 = ADVANCED_FACE ( 'NONE', ( #124 ), #169, .T. ) ;
#52 = ORIENTED_EDGE ( 'NONE', *, *, #58, .T. ) ;
#53 = VECTOR ( 'NONE', #229, 1000.000000000000000 ) ;
#54 = DIRECTION ( 'NONE',  ( 0.000000000000000000, 0.000000000000000000, 1.000000000000000000 ) ) ;
#55 = CC_DESIGN_APPROVAL ( #43, ( #166 ) ) ;
#56 = EDGE_LOOP ( 'NONE', ( #66, #27 ) ) ;
#57 = CARTESIAN_POINT ( 'NONE',  ( 0.000000000000000000, 0.000000000000000000, 125.0000000000000000 ) ) ;
#58 = EDGE_CURVE ( 'NONE', #86, #103, #80, .T. ) ;
#59 = AXIS2_PLACEMENT_3D ( 'NONE', #57, #184, #17 ) ;
#60 = DIRECTION ( 'NONE',  ( 1.000000000000000000, 0.000000000000000000, 0.000000000000000000 ) ) ;
#61 = VECTOR ( 'NONE', #150, 1000.000000000000000 ) ;
#62 = PERSON_AND_ORGANIZATION ( #38, #198 ) ;
#63 = CARTESIAN_POINT ( 'NONE',  ( 0.000000000000000000, 0.000000000000000000, 125.0000000000000000 ) ) ;
#64 = PERSON_AND_ORGANIZATION_ROLE ( 'classification_officer' ) ;
#65 = DIRECTION ( 'NONE',  ( -0.000000000000000000, -0.000000000000000000, -1.000000000000000000 ) ) ;
#66 = ORIENTED_EDGE ( 'NONE', *, *, #37, .F. ) ;
#67 = AXIS2_PLACEMENT_3D ( 'NONE', #116, #139, #32 ) ;
#68 = CARTESIAN_POINT ( 'NONE',  ( -0.6500000000000000222, 0.000000000000000000, 1.500000000000000000 ) ) ;
#69 = VERTEX_POINT ( 'NONE', #126 ) ;
#70 = EDGE_LOOP ( 'NONE', ( #202, #47 ) ) ;
#71 = EDGE_CURVE ( 'NONE', #8, #69, #160, .T. ) ;
#72 = ORIENTED_EDGE ( 'NONE', *, *, #94, .F. ) ;
#73 = CALENDAR_DATE ( 2023, 12, 2 ) ;
#74 = APPROVAL_PERSON_ORGANIZATION ( #24, #43, #159 ) ;
#75 = DIRECTION ( 'NONE',  ( -1.000000000000000000, 0.000000000000000000, 0.000000000000000000 ) ) ;
#76 = DATE_AND_TIME ( #196, #245 ) ;
#77 = DIRECTION ( 'NONE',  ( -0.000000000000000000, -0.000000000000000000, -1.000000000000000000 ) ) ;
#78 = FACE_OUTER_BOUND ( 'NONE', #101, .T. ) ;
#79 = CC_DESIGN_SECURITY_CLASSIFICATION ( #238, ( #166 ) ) ;
#80 = LINE ( 'NONE', #129, #22 ) ;
#81 = CARTESIAN_POINT ( 'NONE',  ( 0.000000000000000000, 0.000000000000000000, 0.000000000000000000 ) ) ;
#82 = CARTESIAN_POINT ( 'NONE',  ( 0.6500000000000000222, 7.960204194457795477E-17, 125.0000000000000000 ) ) ;
#83 =( NAMED_UNIT ( * ) PLANE_ANGLE_UNIT ( ) SI_UNIT ( $, .RADIAN. ) );
#84 = DIRECTION ( 'NONE',  ( -0.000000000000000000, -0.000000000000000000, -1.000000000000000000 ) ) ;
#85 = PLANE ( 'NONE',  #225 ) ;
#86 = VERTEX_POINT ( 'NONE', #161 ) ;
#87 = DIRECTION ( 'NONE',  ( 0.000000000000000000, 0.000000000000000000, 1.000000000000000000 ) ) ;
#88 = VECTOR ( 'NONE', #84, 1000.000000000000000 ) ;
#89 = ORIENTED_EDGE ( 'NONE', *, *, #164, .F. ) ;
#90 = ORIENTED_EDGE ( 'NONE', *, *, #164, .T. ) ;
#91 = DIRECTION ( 'NONE',  ( 0.000000000000000000, 0.000000000000000000, 1.000000000000000000 ) ) ;
#92 = DATE_AND_TIME ( #182, #148 ) ;
#93 = CARTESIAN_POINT ( 'NONE',  ( 0.000000000000000000, 0.000000000000000000, 0.000000000000000000 ) ) ;
#94 = EDGE_CURVE ( 'NONE', #205, #243, #228, .T. ) ;
#95 = CIRCLE ( 'NONE', #120, 1.500000000000000222 ) ;
#96 = CC_DESIGN_APPROVAL ( #151, ( #238 ) ) ;
#97 = CARTESIAN_POINT ( 'NONE',  ( 0.000000000000000000, 0.000000000000000000, 1.500000000000000000 ) ) ;
#98 = CIRCLE ( 'NONE', #236, 0.6500000000000000222 ) ;
#99 = COORDINATED_UNIVERSAL_TIME_OFFSET ( 1, 0, .AHEAD. ) ;
#100 = DIRECTION ( 'NONE',  ( 0.000000000000000000, 0.000000000000000000, 1.000000000000000000 ) ) ;
#101 = EDGE_LOOP ( 'NONE', ( #89, #10, #221, #204 ) ) ;
#102 = PERSON_AND_ORGANIZATION ( #38, #198 ) ;
#103 = VERTEX_POINT ( 'NONE', #224 ) ;
#104 = COORDINATED_UNIVERSAL_TIME_OFFSET ( 1, 0, .AHEAD. ) ;
#105 = DIRECTION ( 'NONE',  ( -0.000000000000000000, -0.000000000000000000, -1.000000000000000000 ) ) ;
#106 = FACE_OUTER_BOUND ( 'NONE', #140, .T. ) ;
#107 = AXIS2_PLACEMENT_3D ( 'NONE', #31, #54, #215 ) ;
#108 = EDGE_CURVE ( 'NONE', #181, #103, #165, .T. ) ;
#109 = LOCAL_TIME ( 13, 58, 35.00000000000000000, #99 ) ;
#110 = DIRECTION ( 'NONE',  ( 1.000000000000000000, 0.000000000000000000, 0.000000000000000000 ) ) ;
#111 = APPROVAL_STATUS ( 'not_yet_approved' ) ;
#112 = PRODUCT_DEFINITION ( 'NEZNÁMÝ', '', #166, #154 ) ;
#113 = DATE_AND_TIME ( #197, #203 ) ;
#114 = ADVANCED_FACE ( 'NONE', ( #247, #127 ), #253, .T. ) ;
#115 = UNCERTAINTY_MEASURE_WITH_UNIT (LENGTH_MEASURE( 1.000000000000000082E-05 ), #191, 'distance_accuracy_value', 'NONE');
#116 = CARTESIAN_POINT ( 'NONE',  ( 0.000000000000000000, 0.000000000000000000, 0.000000000000000000 ) ) ;
#117 = EDGE_CURVE ( 'NONE', #69, #8, #230, .T. ) ;
#118 = CARTESIAN_POINT ( 'NONE',  ( 0.000000000000000000, 0.000000000000000000, 125.0000000000000000 ) ) ;
#119 = ORIENTED_EDGE ( 'NONE', *, *, #12, .F. ) ;
#120 = AXIS2_PLACEMENT_3D ( 'NONE', #199, #87, #235 ) ;
#121 = CC_DESIGN_DATE_AND_TIME_ASSIGNMENT ( #76, #135, ( #112 ) ) ;
#122 = ORIENTED_EDGE ( 'NONE', *, *, #157, .T. ) ;
#123 = DATE_AND_TIME ( #206, #16 ) ;
#124 = FACE_OUTER_BOUND ( 'NONE', #155, .T. ) ;
#125 = AXIS2_PLACEMENT_3D ( 'NONE', #222, #185, #250 ) ;
#126 = CARTESIAN_POINT ( 'NONE',  ( 0.6500000000000000222, 7.960204194457795477E-17, 1.500000000000000000 ) ) ;
#127 = FACE_OUTER_BOUND ( 'NONE', #143, .T. ) ;
#128 = CARTESIAN_POINT ( 'NONE',  ( 0.000000000000000000, 0.000000000000000000, 0.000000000000000000 ) ) ;
#129 = CARTESIAN_POINT ( 'NONE',  ( -1.500000000000000222, 0.000000000000000000, 1.500000000000000000 ) ) ;
#130 = APPLICATION_PROTOCOL_DEFINITION ( 'international standard', 'config_control_design', 1994, #240 ) ;
#131 = PERSON_AND_ORGANIZATION_ROLE ( 'design_owner' ) ;
#132 = ADVANCED_FACE ( 'NONE', ( #3 ), #176, .T. ) ;
#133 = ADVANCED_BREP_SHAPE_REPRESENTATION ( '8b27', ( #162, #190 ), #138 ) ;
#134 = DIRECTION ( 'NONE',  ( 1.000000000000000000, 0.000000000000000000, -0.000000000000000000 ) ) ;
#135 = DATE_TIME_ROLE ( 'creation_date' ) ;
#136 = ORIENTED_EDGE ( 'NONE', *, *, #37, .T. ) ;
#137 = PERSON_AND_ORGANIZATION_ROLE ( 'creator' ) ;
#138 =( GEOMETRIC_REPRESENTATION_CONTEXT ( 3 ) GLOBAL_UNCERTAINTY_ASSIGNED_CONTEXT ( ( #115 ) ) GLOBAL_UNIT_ASSIGNED_CONTEXT ( ( #191, #83, #170 ) ) REPRESENTATION_CONTEXT ( 'NONE', 'WORKASPACE' ) );
#139 = DIRECTION ( 'NONE',  ( 0.000000000000000000, 0.000000000000000000, 1.000000000000000000 ) ) ;
#140 = EDGE_LOOP ( 'NONE', ( #177, #158, #152, #218 ) ) ;
#141 = CARTESIAN_POINT ( 'NONE',  ( 0.000000000000000000, 0.000000000000000000, 125.0000000000000000 ) ) ;
#142 = PLANE ( 'NONE',  #67 ) ;
#143 = EDGE_LOOP ( 'NONE', ( #178, #90 ) ) ;
#144 = COORDINATED_UNIVERSAL_TIME_OFFSET ( 1, 0, .AHEAD. ) ;
#145 = CYLINDRICAL_SURFACE ( 'NONE', #171, 0.6500000000000000222 ) ;
#146 = EDGE_CURVE ( 'NONE', #50, #181, #239, .T. ) ;
#147 = DIRECTION ( 'NONE',  ( 1.000000000000000000, 0.000000000000000000, 0.000000000000000000 ) ) ;
#148 = LOCAL_TIME ( 13, 58, 35.00000000000000000, #1 ) ;
#149 = APPROVAL_ROLE ( '' ) ;
#150 = DIRECTION ( 'NONE',  ( -0.000000000000000000, -0.000000000000000000, -1.000000000000000000 ) ) ;
#151 = APPROVAL ( #11, 'NEURÈENÝ' ) ;
#152 = ORIENTED_EDGE ( 'NONE', *, *, #255, .T. ) ;
#153 = AXIS2_PLACEMENT_3D ( 'NONE', #210, #39, #60 ) ;
#154 = DESIGN_CONTEXT ( 'detailed design', #240, 'design' ) ;
#155 = EDGE_LOOP ( 'NONE', ( #6, #119, #52, #136 ) ) ;
#156 = ADVANCED_FACE ( 'NONE', ( #232 ), #85, .T. ) ;
#157 = EDGE_CURVE ( 'NONE', #205, #69, #5, .T. ) ;
#158 = ORIENTED_EDGE ( 'NONE', *, *, #29, .F. ) ;
#159 = APPROVAL_ROLE ( '' ) ;
#160 = CIRCLE ( 'NONE', #153, 0.6500000000000000222 ) ;
#161 = CARTESIAN_POINT ( 'NONE',  ( -1.500000000000000222, 0.000000000000000000, 1.500000000000000000 ) ) ;
#162 = MANIFOLD_SOLID_BREP ( 'Pøidat vysunutím3', #187 ) ;
#163 = DIRECTION ( 'NONE',  ( 0.000000000000000000, 0.000000000000000000, 1.000000000000000000 ) ) ;
#164 = EDGE_CURVE ( 'NONE', #50, #86, #95, .T. ) ;
#165 = CIRCLE ( 'NONE', #189, 1.500000000000000222 ) ;
#166 = PRODUCT_DEFINITION_FORMATION_WITH_SPECIFIED_SOURCE ( 'LIBOVOLNÝ', '', #173, .NOT_KNOWN. ) ;
#167 = CC_DESIGN_PERSON_AND_ORGANIZATION_ASSIGNMENT ( #102, #64, ( #238 ) ) ;
#168 = DIRECTION ( 'NONE',  ( 0.000000000000000000, 0.000000000000000000, 1.000000000000000000 ) ) ;
#169 = CYLINDRICAL_SURFACE ( 'NONE', #125, 1.500000000000000222 ) ;
#170 =( NAMED_UNIT ( * ) SI_UNIT ( $, .STERADIAN. ) SOLID_ANGLE_UNIT ( ) );
#171 = AXIS2_PLACEMENT_3D ( 'NONE', #35, #77, #75 ) ;
#172 = ADVANCED_FACE ( 'NONE', ( #78 ), #18, .T. ) ;
#173 = PRODUCT ( '8b27', '8b27', '', ( #21 ) ) ;
#174 = COORDINATED_UNIVERSAL_TIME_OFFSET ( 1, 0, .AHEAD. ) ;
#175 = CC_DESIGN_APPROVAL ( #211, ( #112 ) ) ;
#176 = CYLINDRICAL_SURFACE ( 'NONE', #45, 0.6500000000000000222 ) ;
#177 = ORIENTED_EDGE ( 'NONE', *, *, #157, .F. ) ;
#178 = ORIENTED_EDGE ( 'NONE', *, *, #12, .T. ) ;
#179 = APPLICATION_CONTEXT ( 'configuration controlled 3d designs of mechanical parts and assemblies' ) ;
#180 = DIRECTION ( 'NONE',  ( 1.000000000000000000, 0.000000000000000000, 0.000000000000000000 ) ) ;
#181 = VERTEX_POINT ( 'NONE', #254 ) ;
#182 = CALENDAR_DATE ( 2023, 12, 2 ) ;
#183 = CC_DESIGN_DATE_AND_TIME_ASSIGNMENT ( #92, #42, ( #238 ) ) ;
#184 = DIRECTION ( 'NONE',  ( 0.000000000000000000, 0.000000000000000000, 1.000000000000000000 ) ) ;
#185 = DIRECTION ( 'NONE',  ( -0.000000000000000000, -0.000000000000000000, -1.000000000000000000 ) ) ;
#186 = LINE ( 'NONE', #19, #53 ) ;
#187 = CLOSED_SHELL ( 'NONE', ( #132, #172, #51, #114, #2, #34, #156 ) ) ;
#188 = CARTESIAN_POINT ( 'NONE',  ( -0.6500000000000000222, 0.000000000000000000, 125.0000000000000000 ) ) ;
#189 = AXIS2_PLACEMENT_3D ( 'NONE', #93, #163, #209 ) ;
#190 = AXIS2_PLACEMENT_3D ( 'NONE', #81, #168, #110 ) ;
#191 =( LENGTH_UNIT ( ) NAMED_UNIT ( * ) SI_UNIT ( .MILLI., .METRE. ) );
#192 = PERSON_AND_ORGANIZATION_ROLE ( 'creator' ) ;
#193 = DIRECTION ( 'NONE',  ( 1.000000000000000000, 0.000000000000000000, -0.000000000000000000 ) ) ;
#194 = DIRECTION ( 'NONE',  ( 0.000000000000000000, 0.000000000000000000, 1.000000000000000000 ) ) ;
#195 = CC_DESIGN_PERSON_AND_ORGANIZATION_ASSIGNMENT ( #25, #192, ( #166 ) ) ;
#196 = CALENDAR_DATE ( 2023, 12, 2 ) ;
#197 = CALENDAR_DATE ( 2023, 12, 2 ) ;
#198 = ORGANIZATION ( 'NEURÈENÝ', 'NEURÈENÝ', '' ) ;
#199 = CARTESIAN_POINT ( 'NONE',  ( 0.000000000000000000, 0.000000000000000000, 1.500000000000000000 ) ) ;
#200 = EDGE_LOOP ( 'NONE', ( #72, #122, #233, #237 ) ) ;
#201 = DIRECTION ( 'NONE',  ( -1.000000000000000000, 0.000000000000000000, 0.000000000000000000 ) ) ;
#202 = ORIENTED_EDGE ( 'NONE', *, *, #71, .F. ) ;
#203 = LOCAL_TIME ( 13, 58, 35.00000000000000000, #144 ) ;
#204 = ORIENTED_EDGE ( 'NONE', *, *, #58, .F. ) ;
#205 = VERTEX_POINT ( 'NONE', #82 ) ;
#206 = CALENDAR_DATE ( 2023, 12, 2 ) ;
#207 = CC_DESIGN_PERSON_AND_ORGANIZATION_ASSIGNMENT ( #23, #234, ( #166 ) ) ;
#208 = DIRECTION ( 'NONE',  ( 0.000000000000000000, 0.000000000000000000, 1.000000000000000000 ) ) ;
#209 = DIRECTION ( 'NONE',  ( 1.000000000000000000, 0.000000000000000000, 0.000000000000000000 ) ) ;
#210 = CARTESIAN_POINT ( 'NONE',  ( 0.000000000000000000, 0.000000000000000000, 1.500000000000000000 ) ) ;
#211 = APPROVAL ( #111, 'NEURÈENÝ' ) ;
#212 = FACE_OUTER_BOUND ( 'NONE', #56, .T. ) ;
#213 = APPROVAL_STATUS ( 'not_yet_approved' ) ;
#214 = APPROVAL_PERSON_ORGANIZATION ( #40, #211, #149 ) ;
#215 = DIRECTION ( 'NONE',  ( 1.000000000000000000, 0.000000000000000000, 0.000000000000000000 ) ) ;
#216 = PRODUCT_RELATED_PRODUCT_CATEGORY ( 'detail', '', ( #173 ) ) ;
#217 = CARTESIAN_POINT ( 'NONE',  ( 0.6500000000000000222, 7.960204194457795477E-17, 125.0000000000000000 ) ) ;
#218 = ORIENTED_EDGE ( 'NONE', *, *, #71, .T. ) ;
#219 = AXIS2_PLACEMENT_3D ( 'NONE', #220, #251, #249 ) ;
#220 = CARTESIAN_POINT ( 'NONE',  ( 0.000000000000000000, 0.000000000000000000, 1.500000000000000000 ) ) ;
#221 = ORIENTED_EDGE ( 'NONE', *, *, #108, .T. ) ;
#222 = CARTESIAN_POINT ( 'NONE',  ( 0.000000000000000000, 0.000000000000000000, 1.500000000000000000 ) ) ;
#223 = APPROVAL_DATE_TIME ( #113, #211 ) ;
#224 = CARTESIAN_POINT ( 'NONE',  ( -1.500000000000000222, 0.000000000000000000, 0.000000000000000000 ) ) ;
#225 = AXIS2_PLACEMENT_3D ( 'NONE', #63, #100, #134 ) ;
#226 = CARTESIAN_POINT ( 'NONE',  ( 1.500000000000000222, 1.836970198721030181E-16, 1.500000000000000000 ) ) ;
#227 = PERSON_AND_ORGANIZATION ( #38, #198 ) ;
#228 = CIRCLE ( 'NONE', #59, 0.6500000000000000222 ) ;
#229 = DIRECTION ( 'NONE',  ( -0.000000000000000000, -0.000000000000000000, -1.000000000000000000 ) ) ;
#230 = CIRCLE ( 'NONE', #7, 0.6500000000000000222 ) ;
#231 = SECURITY_CLASSIFICATION_LEVEL ( 'unclassified' ) ;
#232 = FACE_OUTER_BOUND ( 'NONE', #28, .T. ) ;
#233 = ORIENTED_EDGE ( 'NONE', *, *, #117, .T. ) ;
#234 = PERSON_AND_ORGANIZATION_ROLE ( 'design_supplier' ) ;
#235 = DIRECTION ( 'NONE',  ( 1.000000000000000000, 0.000000000000000000, 0.000000000000000000 ) ) ;
#236 = AXIS2_PLACEMENT_3D ( 'NONE', #118, #91, #4 ) ;
#237 = ORIENTED_EDGE ( 'NONE', *, *, #255, .F. ) ;
#238 = SECURITY_CLASSIFICATION ( '', '', #231 ) ;
#239 = LINE ( 'NONE', #46, #88 ) ;
#240 = APPLICATION_CONTEXT ( 'configuration controlled 3d designs of mechanical parts and assemblies' ) ;
#241 = ORIENTED_EDGE ( 'NONE', *, *, #29, .T. ) ;
#242 = ORIENTED_EDGE ( 'NONE', *, *, #94, .T. ) ;
#243 = VERTEX_POINT ( 'NONE', #188 ) ;
#244 = APPROVAL_DATE_TIME ( #123, #43 ) ;
#245 = LOCAL_TIME ( 13, 58, 35.00000000000000000, #104 ) ;
#246 = APPROVAL_ROLE ( '' ) ;
#247 = FACE_BOUND ( 'NONE', #70, .T. ) ;
#248 = CIRCLE ( 'NONE', #41, 1.500000000000000222 ) ;
#249 = DIRECTION ( 'NONE',  ( -1.000000000000000000, 0.000000000000000000, 0.000000000000000000 ) ) ;
#250 = DIRECTION ( 'NONE',  ( -1.000000000000000000, 0.000000000000000000, 0.000000000000000000 ) ) ;
#251 = DIRECTION ( 'NONE',  ( -0.000000000000000000, -0.000000000000000000, -1.000000000000000000 ) ) ;
#252 = APPLICATION_PROTOCOL_DEFINITION ( 'international standard', 'config_control_design', 1994, #179 ) ;
#253 = PLANE ( 'NONE',  #13 ) ;
#254 = CARTESIAN_POINT ( 'NONE',  ( 1.500000000000000222, 1.836970198721030181E-16, 0.000000000000000000 ) ) ;
#255 = EDGE_CURVE ( 'NONE', #243, #8, #186, .T. ) ;
ENDSEC;
END-ISO-10303-21;
