ISO-10303-21;
HEADER;
FILE_DESCRIPTION (( 'STEP AP203' ),
    '1' );
FILE_NAME ('7248.STEP',
    '2023-02-12T11:27:41',
    ( '' ),
    ( '' ),
    'SwSTEP 2.0',
    'SolidWorks 2019',
    '' );
FILE_SCHEMA (( 'CONFIG_CONTROL_DESIGN' ));
ENDSEC;

DATA;
#1 = ORIENTED_EDGE ( 'NONE', *, *, #238, .T. ) ;
#2 = ORIENTED_EDGE ( 'NONE', *, *, #163, .F. ) ;
#3 = EDGE_CURVE ( 'NONE', #194, #125, #150, .T. ) ;
#4 = APPLICATION_PROTOCOL_DEFINITION ( 'international standard', 'config_control_design', 1994, #5 ) ;
#5 = APPLICATION_CONTEXT ( 'configuration controlled 3d designs of mechanical parts and assemblies' ) ;
#6 = AXIS2_PLACEMENT_3D ( 'NONE', #142, #107, #165 ) ;
#7 = APPROVAL ( #214, 'NEURÈENÝ' ) ;
#8 = ADVANCED_BREP_SHAPE_REPRESENTATION ( '7248', ( #237, #226 ), #149 ) ;
#9 = PERSON_AND_ORGANIZATION ( #206, #80 ) ;
#10 = CARTESIAN_POINT ( 'NONE',  ( 0.000000000000000000, 0.000000000000000000, 200.0000000000000000 ) ) ;
#11 = FACE_OUTER_BOUND ( 'NONE', #210, .T. ) ;
#12 = CC_DESIGN_PERSON_AND_ORGANIZATION_ASSIGNMENT ( #9, #219, ( #119 ) ) ;
#13 = CALENDAR_DATE ( 2023, 12, 2 ) ;
#14 = DIRECTION ( 'NONE',  ( -0.000000000000000000, -0.000000000000000000, -1.000000000000000000 ) ) ;
#15 = APPROVAL_DATE_TIME ( #40, #7 ) ;
#16 = DIRECTION ( 'NONE',  ( -1.000000000000000000, 0.000000000000000000, 0.000000000000000000 ) ) ;
#17 = VERTEX_POINT ( 'NONE', #147 ) ;
#18 = PLANE ( 'NONE',  #39 ) ;
#19 = EDGE_CURVE ( 'NONE', #125, #166, #173, .T. ) ;
#20 = ORIENTED_EDGE ( 'NONE', *, *, #34, .T. ) ;
#21 = ORIENTED_EDGE ( 'NONE', *, *, #87, .F. ) ;
#22 = EDGE_CURVE ( 'NONE', #68, #58, #27, .T. ) ;
#23 = DIRECTION ( 'NONE',  ( 1.000000000000000000, 0.000000000000000000, 0.000000000000000000 ) ) ;
#24 = ORIENTED_EDGE ( 'NONE', *, *, #19, .F. ) ;
#25 = PERSON_AND_ORGANIZATION_ROLE ( 'classification_officer' ) ;
#26 = AXIS2_PLACEMENT_3D ( 'NONE', #10, #122, #86 ) ;
#27 = CIRCLE ( 'NONE', #155, 8.000000000000000000 ) ;
#28 = DATE_TIME_ROLE ( 'creation_date' ) ;
#29 = EDGE_CURVE ( 'NONE', #58, #68, #64, .T. ) ;
#30 = APPROVAL_DATE_TIME ( #133, #145 ) ;
#31 = AXIS2_PLACEMENT_3D ( 'NONE', #36, #14, #16 ) ;
#32 = CARTESIAN_POINT ( 'NONE',  ( 0.000000000000000000, 0.000000000000000000, 0.000000000000000000 ) ) ;
#33 = CARTESIAN_POINT ( 'NONE',  ( 0.000000000000000000, 0.000000000000000000, 5.000000000000000000 ) ) ;
#34 = EDGE_CURVE ( 'NONE', #164, #194, #139, .T. ) ;
#35 = ORIENTED_EDGE ( 'NONE', *, *, #29, .F. ) ;
#36 = CARTESIAN_POINT ( 'NONE',  ( 0.000000000000000000, 0.000000000000000000, 200.0000000000000000 ) ) ;
#37 = ORIENTED_EDGE ( 'NONE', *, *, #87, .T. ) ;
#38 =( NAMED_UNIT ( * ) SI_UNIT ( $, .STERADIAN. ) SOLID_ANGLE_UNIT ( ) );
#39 = AXIS2_PLACEMENT_3D ( 'NONE', #253, #162, #255 ) ;
#40 = DATE_AND_TIME ( #82, #185 ) ;
#41 = DIRECTION ( 'NONE',  ( 1.000000000000000000, 0.000000000000000000, -0.000000000000000000 ) ) ;
#42 = CYLINDRICAL_SURFACE ( 'NONE', #31, 5.000000000000000888 ) ;
#43 = VERTEX_POINT ( 'NONE', #156 ) ;
#44 = EDGE_LOOP ( 'NONE', ( #151, #20 ) ) ;
#45 = AXIS2_PLACEMENT_3D ( 'NONE', #33, #213, #252 ) ;
#46 = DIRECTION ( 'NONE',  ( 1.000000000000000000, 0.000000000000000000, 0.000000000000000000 ) ) ;
#47 = CARTESIAN_POINT ( 'NONE',  ( 0.000000000000000000, 0.000000000000000000, 0.000000000000000000 ) ) ;
#48 = SECURITY_CLASSIFICATION_LEVEL ( 'unclassified' ) ;
#49 = COORDINATED_UNIVERSAL_TIME_OFFSET ( 1, 0, .AHEAD. ) ;
#50 = AXIS2_PLACEMENT_3D ( 'NONE', #189, #250, #95 ) ;
#51 = AXIS2_PLACEMENT_3D ( 'NONE', #217, #112, #46 ) ;
#52 = DIRECTION ( 'NONE',  ( 1.000000000000000000, 0.000000000000000000, 0.000000000000000000 ) ) ;
#53 = CC_DESIGN_DATE_AND_TIME_ASSIGNMENT ( #220, #28, ( #159 ) ) ;
#54 = CARTESIAN_POINT ( 'NONE',  ( -8.000000000000000000, 0.000000000000000000, 0.000000000000000000 ) ) ;
#55 = PERSON_AND_ORGANIZATION_ROLE ( 'creator' ) ;
#56 = APPROVAL_PERSON_ORGANIZATION ( #239, #249, #131 ) ;
#57 = EDGE_LOOP ( 'NONE', ( #234, #1, #37, #98 ) ) ;
#58 = VERTEX_POINT ( 'NONE', #54 ) ;
#59 = FACE_OUTER_BOUND ( 'NONE', #44, .T. ) ;
#60 = FACE_BOUND ( 'NONE', #175, .T. ) ;
#61 = APPLICATION_CONTEXT ( 'configuration controlled 3d designs of mechanical parts and assemblies' ) ;
#62 = ORIENTED_EDGE ( 'NONE', *, *, #238, .F. ) ;
#63 = CIRCLE ( 'NONE', #26, 5.000000000000000888 ) ;
#64 = CIRCLE ( 'NONE', #97, 8.000000000000000000 ) ;
#65 = EDGE_CURVE ( 'NONE', #17, #43, #196, .T. ) ;
#66 = CARTESIAN_POINT ( 'NONE',  ( -5.000000000000000888, 0.000000000000000000, 200.0000000000000000 ) ) ;
#67 = AXIS2_PLACEMENT_3D ( 'NONE', #99, #118, #254 ) ;
#68 = VERTEX_POINT ( 'NONE', #132 ) ;
#69 = DIRECTION ( 'NONE',  ( 1.000000000000000000, 0.000000000000000000, -0.000000000000000000 ) ) ;
#70 = ADVANCED_FACE ( 'NONE', ( #138 ), #190, .T. ) ;
#71 = APPROVAL_STATUS ( 'not_yet_approved' ) ;
#72 = DIRECTION ( 'NONE',  ( 0.000000000000000000, 0.000000000000000000, 1.000000000000000000 ) ) ;
#73 = PRODUCT_DEFINITION_SHAPE ( 'NONE', 'NONE',  #159 ) ;
#74 = MECHANICAL_CONTEXT ( 'NONE', #5, 'mechanical' ) ;
#75 = APPROVAL_PERSON_ORGANIZATION ( #177, #7, #211 ) ;
#76 = DIRECTION ( 'NONE',  ( 0.000000000000000000, 0.000000000000000000, 1.000000000000000000 ) ) ;
#77 = DIRECTION ( 'NONE',  ( -0.000000000000000000, -0.000000000000000000, -1.000000000000000000 ) ) ;
#78 = CALENDAR_DATE ( 2023, 12, 2 ) ;
#79 = CARTESIAN_POINT ( 'NONE',  ( 5.000000000000000888, 6.123233995736767268E-16, 200.0000000000000000 ) ) ;
#80 = ORGANIZATION ( 'NEURÈENÝ', 'NEURÈENÝ', '' ) ;
#81 = CARTESIAN_POINT ( 'NONE',  ( -8.000000000000000000, 0.000000000000000000, 5.000000000000000000 ) ) ;
#82 = CALENDAR_DATE ( 2023, 12, 2 ) ;
#83 = FACE_OUTER_BOUND ( 'NONE', #167, .T. ) ;
#84 = ADVANCED_FACE ( 'NONE', ( #11 ), #42, .T. ) ;
#85 = ORIENTED_EDGE ( 'NONE', *, *, #65, .F. ) ;
#86 = DIRECTION ( 'NONE',  ( 1.000000000000000000, 0.000000000000000000, 0.000000000000000000 ) ) ;
#87 = EDGE_CURVE ( 'NONE', #166, #125, #148, .T. ) ;
#88 = LOCAL_TIME ( 12, 27, 41.00000000000000000, #49 ) ;
#89 = EDGE_LOOP ( 'NONE', ( #179, #209, #230, #232 ) ) ;
#90 = CYLINDRICAL_SURFACE ( 'NONE', #183, 5.000000000000000888 ) ;
#91 = DIRECTION ( 'NONE',  ( -0.000000000000000000, -0.000000000000000000, -1.000000000000000000 ) ) ;
#92 = PERSON_AND_ORGANIZATION_ROLE ( 'design_owner' ) ;
#93 = AXIS2_PLACEMENT_3D ( 'NONE', #223, #205, #52 ) ;
#94 = CARTESIAN_POINT ( 'NONE',  ( 5.000000000000000888, 6.123233995736767268E-16, 200.0000000000000000 ) ) ;
#95 = DIRECTION ( 'NONE',  ( 1.000000000000000000, 0.000000000000000000, 0.000000000000000000 ) ) ;
#96 = LOCAL_TIME ( 12, 27, 41.00000000000000000, #199 ) ;
#97 = AXIS2_PLACEMENT_3D ( 'NONE', #47, #128, #113 ) ;
#98 = ORIENTED_EDGE ( 'NONE', *, *, #3, .F. ) ;
#99 = CARTESIAN_POINT ( 'NONE',  ( 0.000000000000000000, 0.000000000000000000, 5.000000000000000000 ) ) ;
#100 = CC_DESIGN_PERSON_AND_ORGANIZATION_ASSIGNMENT ( #204, #92, ( #203 ) ) ;
#101 = ORIENTED_EDGE ( 'NONE', *, *, #3, .T. ) ;
#102 = CARTESIAN_POINT ( 'NONE',  ( 8.000000000000000000, 9.797174393178825657E-16, 5.000000000000000000 ) ) ;
#103 = ORIENTED_EDGE ( 'NONE', *, *, #130, .T. ) ;
#104 =( LENGTH_UNIT ( ) NAMED_UNIT ( * ) SI_UNIT ( .MILLI., .METRE. ) );
#105 = SECURITY_CLASSIFICATION ( '', '', #48 ) ;
#106 = ORIENTED_EDGE ( 'NONE', *, *, #29, .T. ) ;
#107 = DIRECTION ( 'NONE',  ( -0.000000000000000000, -0.000000000000000000, -1.000000000000000000 ) ) ;
#108 = CYLINDRICAL_SURFACE ( 'NONE', #6, 8.000000000000000000 ) ;
#109 = ORIENTED_EDGE ( 'NONE', *, *, #117, .T. ) ;
#110 = CARTESIAN_POINT ( 'NONE',  ( 0.000000000000000000, 0.000000000000000000, 5.000000000000000000 ) ) ;
#111 = CLOSED_SHELL ( 'NONE', ( #198, #70, #172, #195, #134, #84, #192 ) ) ;
#112 = DIRECTION ( 'NONE',  ( 0.000000000000000000, 0.000000000000000000, 1.000000000000000000 ) ) ;
#113 = DIRECTION ( 'NONE',  ( 1.000000000000000000, 0.000000000000000000, 0.000000000000000000 ) ) ;
#114 = EDGE_CURVE ( 'NONE', #43, #68, #193, .T. ) ;
#115 = PERSON_AND_ORGANIZATION ( #206, #80 ) ;
#116 = PERSON_AND_ORGANIZATION ( #206, #80 ) ;
#117 = EDGE_CURVE ( 'NONE', #43, #17, #136, .T. ) ;
#118 = DIRECTION ( 'NONE',  ( 0.000000000000000000, 0.000000000000000000, 1.000000000000000000 ) ) ;
#119 = PRODUCT_DEFINITION_FORMATION_WITH_SPECIFIED_SOURCE ( 'LIBOVOLNÝ', '', #203, .NOT_KNOWN. ) ;
#120 = DATE_TIME_ROLE ( 'classification_date' ) ;
#121 = DIRECTION ( 'NONE',  ( -0.000000000000000000, -0.000000000000000000, -1.000000000000000000 ) ) ;
#122 = DIRECTION ( 'NONE',  ( 0.000000000000000000, 0.000000000000000000, 1.000000000000000000 ) ) ;
#123 = COORDINATED_UNIVERSAL_TIME_OFFSET ( 1, 0, .AHEAD. ) ;
#124 = EDGE_LOOP ( 'NONE', ( #228, #85, #103, #106 ) ) ;
#125 = VERTEX_POINT ( 'NONE', #225 ) ;
#126 = LINE ( 'NONE', #79, #181 ) ;
#127 = CC_DESIGN_APPROVAL ( #145, ( #159 ) ) ;
#128 = DIRECTION ( 'NONE',  ( 0.000000000000000000, 0.000000000000000000, 1.000000000000000000 ) ) ;
#129 = PERSON_AND_ORGANIZATION ( #206, #80 ) ;
#130 = EDGE_CURVE ( 'NONE', #17, #58, #144, .T. ) ;
#131 = APPROVAL_ROLE ( '' ) ;
#132 = CARTESIAN_POINT ( 'NONE',  ( 8.000000000000000000, 9.797174393178825657E-16, 0.000000000000000000 ) ) ;
#133 = DATE_AND_TIME ( #78, #96 ) ;
#134 = ADVANCED_FACE ( 'NONE', ( #83 ), #161, .F. ) ;
#135 = COORDINATED_UNIVERSAL_TIME_OFFSET ( 1, 0, .AHEAD. ) ;
#136 = CIRCLE ( 'NONE', #50, 8.000000000000000000 ) ;
#137 = VECTOR ( 'NONE', #121, 1000.000000000000000 ) ;
#138 = FACE_OUTER_BOUND ( 'NONE', #89, .T. ) ;
#139 = CIRCLE ( 'NONE', #170, 5.000000000000000888 ) ;
#140 = CC_DESIGN_APPROVAL ( #7, ( #105 ) ) ;
#141 = ORIENTED_EDGE ( 'NONE', *, *, #65, .T. ) ;
#142 = CARTESIAN_POINT ( 'NONE',  ( 0.000000000000000000, 0.000000000000000000, 5.000000000000000000 ) ) ;
#143 = SHAPE_DEFINITION_REPRESENTATION ( #73, #8 ) ;
#144 = LINE ( 'NONE', #81, #137 ) ;
#145 = APPROVAL ( #224, 'NEURÈENÝ' ) ;
#146 = AXIS2_PLACEMENT_3D ( 'NONE', #110, #72, #69 ) ;
#147 = CARTESIAN_POINT ( 'NONE',  ( -8.000000000000000000, 0.000000000000000000, 5.000000000000000000 ) ) ;
#148 = CIRCLE ( 'NONE', #67, 5.000000000000000888 ) ;
#149 =( GEOMETRIC_REPRESENTATION_CONTEXT ( 3 ) GLOBAL_UNCERTAINTY_ASSIGNED_CONTEXT ( ( #191 ) ) GLOBAL_UNIT_ASSIGNED_CONTEXT ( ( #104, #176, #38 ) ) REPRESENTATION_CONTEXT ( 'NONE', 'WORKASPACE' ) );
#150 = LINE ( 'NONE', #66, #241 ) ;
#151 = ORIENTED_EDGE ( 'NONE', *, *, #163, .T. ) ;
#152 = DATE_AND_TIME ( #222, #158 ) ;
#153 = APPROVAL_ROLE ( '' ) ;
#154 = LOCAL_TIME ( 12, 27, 41.00000000000000000, #123 ) ;
#155 = AXIS2_PLACEMENT_3D ( 'NONE', #168, #235, #23 ) ;
#156 = CARTESIAN_POINT ( 'NONE',  ( 8.000000000000000000, 9.797174393178825657E-16, 5.000000000000000000 ) ) ;
#157 = DIRECTION ( 'NONE',  ( 1.000000000000000000, 0.000000000000000000, 0.000000000000000000 ) ) ;
#158 = LOCAL_TIME ( 12, 27, 41.00000000000000000, #135 ) ;
#159 = PRODUCT_DEFINITION ( 'NEZNÁMÝ', '', #119, #246 ) ;
#160 = DIRECTION ( 'NONE',  ( 0.000000000000000000, 0.000000000000000000, 1.000000000000000000 ) ) ;
#161 = PLANE ( 'NONE',  #247 ) ;
#162 = DIRECTION ( 'NONE',  ( 0.000000000000000000, 0.000000000000000000, 1.000000000000000000 ) ) ;
#163 = EDGE_CURVE ( 'NONE', #194, #164, #63, .T. ) ;
#164 = VERTEX_POINT ( 'NONE', #94 ) ;
#165 = DIRECTION ( 'NONE',  ( -1.000000000000000000, 0.000000000000000000, 0.000000000000000000 ) ) ;
#166 = VERTEX_POINT ( 'NONE', #245 ) ;
#167 = EDGE_LOOP ( 'NONE', ( #35, #197 ) ) ;
#168 = CARTESIAN_POINT ( 'NONE',  ( 0.000000000000000000, 0.000000000000000000, 0.000000000000000000 ) ) ;
#169 = PLANE ( 'NONE',  #146 ) ;
#170 = AXIS2_PLACEMENT_3D ( 'NONE', #184, #76, #200 ) ;
#171 = PRODUCT_RELATED_PRODUCT_CATEGORY ( 'detail', '', ( #203 ) ) ;
#172 = ADVANCED_FACE ( 'NONE', ( #180 ), #108, .T. ) ;
#173 = CIRCLE ( 'NONE', #51, 5.000000000000000888 ) ;
#174 = DIRECTION ( 'NONE',  ( -0.000000000000000000, -0.000000000000000000, -1.000000000000000000 ) ) ;
#175 = EDGE_LOOP ( 'NONE', ( #24, #21 ) ) ;
#176 =( NAMED_UNIT ( * ) PLANE_ANGLE_UNIT ( ) SI_UNIT ( $, .RADIAN. ) );
#177 = PERSON_AND_ORGANIZATION ( #206, #80 ) ;
#178 = DATE_AND_TIME ( #13, #154 ) ;
#179 = ORIENTED_EDGE ( 'NONE', *, *, #117, .F. ) ;
#180 = FACE_OUTER_BOUND ( 'NONE', #124, .T. ) ;
#181 = VECTOR ( 'NONE', #77, 1000.000000000000000 ) ;
#182 = FACE_OUTER_BOUND ( 'NONE', #231, .T. ) ;
#183 = AXIS2_PLACEMENT_3D ( 'NONE', #201, #186, #216 ) ;
#184 = CARTESIAN_POINT ( 'NONE',  ( 0.000000000000000000, 0.000000000000000000, 200.0000000000000000 ) ) ;
#185 = LOCAL_TIME ( 12, 27, 41.00000000000000000, #251 ) ;
#186 = DIRECTION ( 'NONE',  ( -0.000000000000000000, -0.000000000000000000, -1.000000000000000000 ) ) ;
#187 = PERSON_AND_ORGANIZATION_ROLE ( 'creator' ) ;
#188 = APPROVAL_DATE_TIME ( #152, #249 ) ;
#189 = CARTESIAN_POINT ( 'NONE',  ( 0.000000000000000000, 0.000000000000000000, 5.000000000000000000 ) ) ;
#190 = CYLINDRICAL_SURFACE ( 'NONE', #45, 8.000000000000000000 ) ;
#191 = UNCERTAINTY_MEASURE_WITH_UNIT (LENGTH_MEASURE( 1.000000000000000082E-05 ), #104, 'distance_accuracy_value', 'NONE');
#192 = ADVANCED_FACE ( 'NONE', ( #59 ), #18, .T. ) ;
#193 = LINE ( 'NONE', #102, #207 ) ;
#194 = VERTEX_POINT ( 'NONE', #229 ) ;
#195 = ADVANCED_FACE ( 'NONE', ( #60, #182 ), #169, .T. ) ;
#196 = CIRCLE ( 'NONE', #93, 8.000000000000000000 ) ;
#197 = ORIENTED_EDGE ( 'NONE', *, *, #22, .F. ) ;
#198 = ADVANCED_FACE ( 'NONE', ( #218 ), #90, .T. ) ;
#199 = COORDINATED_UNIVERSAL_TIME_OFFSET ( 1, 0, .AHEAD. ) ;
#200 = DIRECTION ( 'NONE',  ( 1.000000000000000000, 0.000000000000000000, 0.000000000000000000 ) ) ;
#201 = CARTESIAN_POINT ( 'NONE',  ( 0.000000000000000000, 0.000000000000000000, 200.0000000000000000 ) ) ;
#202 = DIRECTION ( 'NONE',  ( 0.000000000000000000, 0.000000000000000000, 1.000000000000000000 ) ) ;
#203 = PRODUCT ( '7248', '7248', '', ( #74 ) ) ;
#204 = PERSON_AND_ORGANIZATION ( #206, #80 ) ;
#205 = DIRECTION ( 'NONE',  ( 0.000000000000000000, 0.000000000000000000, 1.000000000000000000 ) ) ;
#206 = PERSON ( 'NEURÈENÝ', 'NEURÈENÝ', 'NEURÈENÝ', ('NEURÈENÝ'), ('NEURÈENÝ'), ('NEURÈENÝ') ) ;
#207 = VECTOR ( 'NONE', #174, 1000.000000000000000 ) ;
#208 = CC_DESIGN_APPROVAL ( #249, ( #119 ) ) ;
#209 = ORIENTED_EDGE ( 'NONE', *, *, #114, .T. ) ;
#210 = EDGE_LOOP ( 'NONE', ( #62, #2, #101, #248 ) ) ;
#211 = APPROVAL_ROLE ( '' ) ;
#212 = CC_DESIGN_PERSON_AND_ORGANIZATION_ASSIGNMENT ( #115, #187, ( #119 ) ) ;
#213 = DIRECTION ( 'NONE',  ( -0.000000000000000000, -0.000000000000000000, -1.000000000000000000 ) ) ;
#214 = APPROVAL_STATUS ( 'not_yet_approved' ) ;
#215 = APPROVAL_PERSON_ORGANIZATION ( #242, #145, #153 ) ;
#216 = DIRECTION ( 'NONE',  ( -1.000000000000000000, 0.000000000000000000, 0.000000000000000000 ) ) ;
#217 = CARTESIAN_POINT ( 'NONE',  ( 0.000000000000000000, 0.000000000000000000, 5.000000000000000000 ) ) ;
#218 = FACE_OUTER_BOUND ( 'NONE', #57, .T. ) ;
#219 = PERSON_AND_ORGANIZATION_ROLE ( 'design_supplier' ) ;
#220 = DATE_AND_TIME ( #240, #88 ) ;
#221 = CC_DESIGN_DATE_AND_TIME_ASSIGNMENT ( #178, #120, ( #105 ) ) ;
#222 = CALENDAR_DATE ( 2023, 12, 2 ) ;
#223 = CARTESIAN_POINT ( 'NONE',  ( 0.000000000000000000, 0.000000000000000000, 5.000000000000000000 ) ) ;
#224 = APPROVAL_STATUS ( 'not_yet_approved' ) ;
#225 = CARTESIAN_POINT ( 'NONE',  ( -5.000000000000000888, 0.000000000000000000, 5.000000000000000000 ) ) ;
#226 = AXIS2_PLACEMENT_3D ( 'NONE', #32, #202, #157 ) ;
#227 = CARTESIAN_POINT ( 'NONE',  ( 0.000000000000000000, 0.000000000000000000, 0.000000000000000000 ) ) ;
#228 = ORIENTED_EDGE ( 'NONE', *, *, #114, .F. ) ;
#229 = CARTESIAN_POINT ( 'NONE',  ( -5.000000000000000888, 0.000000000000000000, 200.0000000000000000 ) ) ;
#230 = ORIENTED_EDGE ( 'NONE', *, *, #22, .T. ) ;
#231 = EDGE_LOOP ( 'NONE', ( #141, #109 ) ) ;
#232 = ORIENTED_EDGE ( 'NONE', *, *, #130, .F. ) ;
#233 = CC_DESIGN_SECURITY_CLASSIFICATION ( #105, ( #119 ) ) ;
#234 = ORIENTED_EDGE ( 'NONE', *, *, #34, .F. ) ;
#235 = DIRECTION ( 'NONE',  ( 0.000000000000000000, 0.000000000000000000, 1.000000000000000000 ) ) ;
#236 = CC_DESIGN_PERSON_AND_ORGANIZATION_ASSIGNMENT ( #129, #25, ( #105 ) ) ;
#237 = MANIFOLD_SOLID_BREP ( 'Pøidat vysunutím3', #111 ) ;
#238 = EDGE_CURVE ( 'NONE', #164, #166, #126, .T. ) ;
#239 = PERSON_AND_ORGANIZATION ( #206, #80 ) ;
#240 = CALENDAR_DATE ( 2023, 12, 2 ) ;
#241 = VECTOR ( 'NONE', #91, 1000.000000000000000 ) ;
#242 = PERSON_AND_ORGANIZATION ( #206, #80 ) ;
#243 = APPLICATION_PROTOCOL_DEFINITION ( 'international standard', 'config_control_design', 1994, #61 ) ;
#244 = CC_DESIGN_PERSON_AND_ORGANIZATION_ASSIGNMENT ( #116, #55, ( #159 ) ) ;
#245 = CARTESIAN_POINT ( 'NONE',  ( 5.000000000000000888, 6.123233995736767268E-16, 5.000000000000000000 ) ) ;
#246 = DESIGN_CONTEXT ( 'detailed design', #61, 'design' ) ;
#247 = AXIS2_PLACEMENT_3D ( 'NONE', #227, #160, #41 ) ;
#248 = ORIENTED_EDGE ( 'NONE', *, *, #19, .T. ) ;
#249 = APPROVAL ( #71, 'NEURÈENÝ' ) ;
#250 = DIRECTION ( 'NONE',  ( 0.000000000000000000, 0.000000000000000000, 1.000000000000000000 ) ) ;
#251 = COORDINATED_UNIVERSAL_TIME_OFFSET ( 1, 0, .AHEAD. ) ;
#252 = DIRECTION ( 'NONE',  ( -1.000000000000000000, 0.000000000000000000, 0.000000000000000000 ) ) ;
#253 = CARTESIAN_POINT ( 'NONE',  ( 0.000000000000000000, 0.000000000000000000, 200.0000000000000000 ) ) ;
#254 = DIRECTION ( 'NONE',  ( 1.000000000000000000, 0.000000000000000000, 0.000000000000000000 ) ) ;
#255 = DIRECTION ( 'NONE',  ( 1.000000000000000000, 0.000000000000000000, -0.000000000000000000 ) ) ;
ENDSEC;
END-ISO-10303-21;
