ISO-10303-21;
HEADER;
FILE_DESCRIPTION (( 'STEP AP203' ),
    '1' );
FILE_NAME ('b3d2.STEP',
    '2023-02-12T12:48:21',
    ( '' ),
    ( '' ),
    'SwSTEP 2.0',
    'SolidWorks 2019',
    '' );
FILE_SCHEMA (( 'CONFIG_CONTROL_DESIGN' ));
ENDSEC;

DATA;
#1 = CC_DESIGN_APPROVAL ( #9, ( #252 ) ) ;
#2 = VERTEX_POINT ( 'NONE', #20 ) ;
#3 = ORIENTED_EDGE ( 'NONE', *, *, #177, .F. ) ;
#4 = PRODUCT_DEFINITION_SHAPE ( 'NONE', 'NONE',  #132 ) ;
#5 = CARTESIAN_POINT ( 'NONE',  ( 0.000000000000000000, 0.000000000000000000, 2.000000000000000000 ) ) ;
#6 = CIRCLE ( 'NONE', #155, 2.500000000000000000 ) ;
#7 = VERTEX_POINT ( 'NONE', #231 ) ;
#8 = CARTESIAN_POINT ( 'NONE',  ( -2.500000000000000000, 0.000000000000000000, 2.000000000000000000 ) ) ;
#9 = APPROVAL ( #202, 'NEURÈENÝ' ) ;
#10 = LOCAL_TIME ( 13, 48, 21.00000000000000000, #126 ) ;
#11 = EDGE_LOOP ( 'NONE', ( #25, #56, #195, #184 ) ) ;
#12 = APPROVAL_DATE_TIME ( #108, #188 ) ;
#13 = CARTESIAN_POINT ( 'NONE',  ( 0.000000000000000000, 0.000000000000000000, 400.0000000000000000 ) ) ;
#14 = PERSON_AND_ORGANIZATION ( #157, #100 ) ;
#15 = APPROVAL_PERSON_ORGANIZATION ( #51, #9, #35 ) ;
#16 = DIRECTION ( 'NONE',  ( 1.000000000000000000, 0.000000000000000000, 0.000000000000000000 ) ) ;
#17 = CC_DESIGN_PERSON_AND_ORGANIZATION_ASSIGNMENT ( #145, #187, ( #252 ) ) ;
#18 = PERSON_AND_ORGANIZATION ( #157, #100 ) ;
#19 = PERSON_AND_ORGANIZATION ( #157, #100 ) ;
#20 = CARTESIAN_POINT ( 'NONE',  ( -1.250000000000000000, 0.000000000000000000, 400.0000000000000000 ) ) ;
#21 = PRODUCT_RELATED_PRODUCT_CATEGORY ( 'detail', '', ( #106 ) ) ;
#22 = CYLINDRICAL_SURFACE ( 'NONE', #254, 1.250000000000000000 ) ;
#23 = LOCAL_TIME ( 13, 48, 21.00000000000000000, #71 ) ;
#24 = EDGE_LOOP ( 'NONE', ( #215, #65 ) ) ;
#25 = ORIENTED_EDGE ( 'NONE', *, *, #140, .F. ) ;
#26 = DIRECTION ( 'NONE',  ( -1.000000000000000000, 0.000000000000000000, 0.000000000000000000 ) ) ;
#27 = DIRECTION ( 'NONE',  ( 0.000000000000000000, 0.000000000000000000, 1.000000000000000000 ) ) ;
#28 =( GEOMETRIC_REPRESENTATION_CONTEXT ( 3 ) GLOBAL_UNCERTAINTY_ASSIGNED_CONTEXT ( ( #76 ) ) GLOBAL_UNIT_ASSIGNED_CONTEXT ( ( #34, #53, #70 ) ) REPRESENTATION_CONTEXT ( 'NONE', 'WORKASPACE' ) );
#29 = EDGE_LOOP ( 'NONE', ( #90, #52, #101, #201 ) ) ;
#30 = EDGE_CURVE ( 'NONE', #246, #198, #241, .T. ) ;
#31 = CARTESIAN_POINT ( 'NONE',  ( 1.250000000000000000, 1.530808498934191571E-16, 400.0000000000000000 ) ) ;
#32 = SECURITY_CLASSIFICATION_LEVEL ( 'unclassified' ) ;
#33 = SHAPE_DEFINITION_REPRESENTATION ( #4, #82 ) ;
#34 =( LENGTH_UNIT ( ) NAMED_UNIT ( * ) SI_UNIT ( .MILLI., .METRE. ) );
#35 = APPROVAL_ROLE ( '' ) ;
#36 = CC_DESIGN_PERSON_AND_ORGANIZATION_ASSIGNMENT ( #107, #93, ( #42 ) ) ;
#37 = AXIS2_PLACEMENT_3D ( 'NONE', #87, #217, #26 ) ;
#38 = MECHANICAL_CONTEXT ( 'NONE', #77, 'mechanical' ) ;
#39 = EDGE_LOOP ( 'NONE', ( #183, #181 ) ) ;
#40 = LOCAL_TIME ( 13, 48, 21.00000000000000000, #227 ) ;
#41 = CARTESIAN_POINT ( 'NONE',  ( 1.250000000000000000, 1.530808498934191571E-16, 2.000000000000000000 ) ) ;
#42 = SECURITY_CLASSIFICATION ( '', '', #32 ) ;
#43 = APPLICATION_PROTOCOL_DEFINITION ( 'international standard', 'config_control_design', 1994, #77 ) ;
#44 = DIRECTION ( 'NONE',  ( 0.000000000000000000, 0.000000000000000000, 1.000000000000000000 ) ) ;
#45 = CARTESIAN_POINT ( 'NONE',  ( 2.500000000000000000, 3.061616997868383141E-16, 2.000000000000000000 ) ) ;
#46 = EDGE_CURVE ( 'NONE', #198, #246, #83, .T. ) ;
#47 = CARTESIAN_POINT ( 'NONE',  ( 0.000000000000000000, 0.000000000000000000, 400.0000000000000000 ) ) ;
#48 = CARTESIAN_POINT ( 'NONE',  ( 0.000000000000000000, 0.000000000000000000, 400.0000000000000000 ) ) ;
#49 = ORIENTED_EDGE ( 'NONE', *, *, #140, .T. ) ;
#50 = DIRECTION ( 'NONE',  ( -0.000000000000000000, -0.000000000000000000, -1.000000000000000000 ) ) ;
#51 = PERSON_AND_ORGANIZATION ( #157, #100 ) ;
#52 = ORIENTED_EDGE ( 'NONE', *, *, #135, .T. ) ;
#53 =( NAMED_UNIT ( * ) PLANE_ANGLE_UNIT ( ) SI_UNIT ( $, .RADIAN. ) );
#54 = DATE_AND_TIME ( #96, #213 ) ;
#55 = VECTOR ( 'NONE', #62, 1000.000000000000000 ) ;
#56 = ORIENTED_EDGE ( 'NONE', *, *, #103, .F. ) ;
#57 = CARTESIAN_POINT ( 'NONE',  ( 0.000000000000000000, 0.000000000000000000, 0.000000000000000000 ) ) ;
#58 = CC_DESIGN_PERSON_AND_ORGANIZATION_ASSIGNMENT ( #14, #94, ( #132 ) ) ;
#59 = DIRECTION ( 'NONE',  ( 1.000000000000000000, 0.000000000000000000, 0.000000000000000000 ) ) ;
#60 = VECTOR ( 'NONE', #200, 1000.000000000000000 ) ;
#61 = ADVANCED_FACE ( 'NONE', ( #152 ), #226, .T. ) ;
#62 = DIRECTION ( 'NONE',  ( -0.000000000000000000, -0.000000000000000000, -1.000000000000000000 ) ) ;
#63 = AXIS2_PLACEMENT_3D ( 'NONE', #194, #223, #16 ) ;
#64 = ORIENTED_EDGE ( 'NONE', *, *, #153, .T. ) ;
#65 = ORIENTED_EDGE ( 'NONE', *, *, #30, .F. ) ;
#66 = CYLINDRICAL_SURFACE ( 'NONE', #67, 1.250000000000000000 ) ;
#67 = AXIS2_PLACEMENT_3D ( 'NONE', #47, #91, #219 ) ;
#68 = PERSON_AND_ORGANIZATION ( #157, #100 ) ;
#69 = DIRECTION ( 'NONE',  ( 0.000000000000000000, 0.000000000000000000, 1.000000000000000000 ) ) ;
#70 =( NAMED_UNIT ( * ) SI_UNIT ( $, .STERADIAN. ) SOLID_ANGLE_UNIT ( ) );
#71 = COORDINATED_UNIVERSAL_TIME_OFFSET ( 1, 0, .AHEAD. ) ;
#72 = CARTESIAN_POINT ( 'NONE',  ( 0.000000000000000000, 0.000000000000000000, 2.000000000000000000 ) ) ;
#73 = CARTESIAN_POINT ( 'NONE',  ( 0.000000000000000000, 0.000000000000000000, 0.000000000000000000 ) ) ;
#74 = AXIS2_PLACEMENT_3D ( 'NONE', #48, #27, #163 ) ;
#75 = EDGE_CURVE ( 'NONE', #7, #199, #185, .T. ) ;
#76 = UNCERTAINTY_MEASURE_WITH_UNIT (LENGTH_MEASURE( 1.000000000000000082E-05 ), #34, 'distance_accuracy_value', 'NONE');
#77 = APPLICATION_CONTEXT ( 'configuration controlled 3d designs of mechanical parts and assemblies' ) ;
#78 = ADVANCED_FACE ( 'NONE', ( #79 ), #235, .F. ) ;
#79 = FACE_OUTER_BOUND ( 'NONE', #24, .T. ) ;
#80 = AXIS2_PLACEMENT_3D ( 'NONE', #99, #44, #178 ) ;
#81 = ADVANCED_FACE ( 'NONE', ( #110 ), #22, .T. ) ;
#82 = ADVANCED_BREP_SHAPE_REPRESENTATION ( 'b3d2', ( #129, #138 ), #28 ) ;
#83 = CIRCLE ( 'NONE', #113, 2.500000000000000000 ) ;
#84 = CARTESIAN_POINT ( 'NONE',  ( 0.000000000000000000, 0.000000000000000000, 400.0000000000000000 ) ) ;
#85 = ORIENTED_EDGE ( 'NONE', *, *, #204, .F. ) ;
#86 = AXIS2_PLACEMENT_3D ( 'NONE', #191, #255, #237 ) ;
#87 = CARTESIAN_POINT ( 'NONE',  ( 0.000000000000000000, 0.000000000000000000, 2.000000000000000000 ) ) ;
#88 = ORIENTED_EDGE ( 'NONE', *, *, #75, .F. ) ;
#89 = DIRECTION ( 'NONE',  ( -0.000000000000000000, -0.000000000000000000, -1.000000000000000000 ) ) ;
#90 = ORIENTED_EDGE ( 'NONE', *, *, #118, .F. ) ;
#91 = DIRECTION ( 'NONE',  ( -0.000000000000000000, -0.000000000000000000, -1.000000000000000000 ) ) ;
#92 = APPROVAL_STATUS ( 'not_yet_approved' ) ;
#93 = PERSON_AND_ORGANIZATION_ROLE ( 'classification_officer' ) ;
#94 = PERSON_AND_ORGANIZATION_ROLE ( 'creator' ) ;
#95 = DIRECTION ( 'NONE',  ( 1.000000000000000000, 0.000000000000000000, 0.000000000000000000 ) ) ;
#96 = CALENDAR_DATE ( 2023, 12, 2 ) ;
#97 = CIRCLE ( 'NONE', #160, 1.250000000000000000 ) ;
#98 = DIRECTION ( 'NONE',  ( 1.000000000000000000, 0.000000000000000000, 0.000000000000000000 ) ) ;
#99 = CARTESIAN_POINT ( 'NONE',  ( 0.000000000000000000, 0.000000000000000000, 2.000000000000000000 ) ) ;
#100 = ORGANIZATION ( 'NEURÈENÝ', 'NEURÈENÝ', '' ) ;
#101 = ORIENTED_EDGE ( 'NONE', *, *, #30, .T. ) ;
#102 = CC_DESIGN_SECURITY_CLASSIFICATION ( #42, ( #252 ) ) ;
#103 = EDGE_CURVE ( 'NONE', #2, #164, #141, .T. ) ;
#104 = CARTESIAN_POINT ( 'NONE',  ( 1.250000000000000000, 1.530808498934191571E-16, 400.0000000000000000 ) ) ;
#105 = ORIENTED_EDGE ( 'NONE', *, *, #135, .F. ) ;
#106 = PRODUCT ( 'b3d2', 'b3d2', '', ( #38 ) ) ;
#107 = PERSON_AND_ORGANIZATION ( #157, #100 ) ;
#108 = DATE_AND_TIME ( #127, #10 ) ;
#109 = ADVANCED_FACE ( 'NONE', ( #119 ), #182, .T. ) ;
#110 = FACE_OUTER_BOUND ( 'NONE', #247, .T. ) ;
#111 = CC_DESIGN_DATE_AND_TIME_ASSIGNMENT ( #54, #249, ( #42 ) ) ;
#112 = LINE ( 'NONE', #180, #55 ) ;
#113 = AXIS2_PLACEMENT_3D ( 'NONE', #179, #236, #59 ) ;
#114 = LINE ( 'NONE', #167, #209 ) ;
#115 = ORIENTED_EDGE ( 'NONE', *, *, #153, .F. ) ;
#116 = CARTESIAN_POINT ( 'NONE',  ( -2.500000000000000000, 0.000000000000000000, 2.000000000000000000 ) ) ;
#117 = CIRCLE ( 'NONE', #149, 1.250000000000000000 ) ;
#118 = EDGE_CURVE ( 'NONE', #124, #120, #6, .T. ) ;
#119 = FACE_OUTER_BOUND ( 'NONE', #168, .T. ) ;
#120 = VERTEX_POINT ( 'NONE', #8 ) ;
#121 = CLOSED_SHELL ( 'NONE', ( #81, #224, #109, #190, #78, #230, #61 ) ) ;
#122 = LINE ( 'NONE', #104, #60 ) ;
#123 = APPROVAL_DATE_TIME ( #147, #221 ) ;
#124 = VERTEX_POINT ( 'NONE', #45 ) ;
#125 = CC_DESIGN_APPROVAL ( #221, ( #42 ) ) ;
#126 = COORDINATED_UNIVERSAL_TIME_OFFSET ( 1, 0, .AHEAD. ) ;
#127 = CALENDAR_DATE ( 2023, 12, 2 ) ;
#128 = DIRECTION ( 'NONE',  ( 1.000000000000000000, 0.000000000000000000, 0.000000000000000000 ) ) ;
#129 = MANIFOLD_SOLID_BREP ( 'Pøidat vysunutím3', #121 ) ;
#130 = APPROVAL_DATE_TIME ( #218, #9 ) ;
#131 = AXIS2_PLACEMENT_3D ( 'NONE', #57, #133, #98 ) ;
#132 = PRODUCT_DEFINITION ( 'NEZNÁMÝ', '', #252, #228 ) ;
#133 = DIRECTION ( 'NONE',  ( 0.000000000000000000, 0.000000000000000000, 1.000000000000000000 ) ) ;
#134 = DIRECTION ( 'NONE',  ( 1.000000000000000000, 0.000000000000000000, -0.000000000000000000 ) ) ;
#135 = EDGE_CURVE ( 'NONE', #124, #246, #114, .T. ) ;
#136 = FACE_BOUND ( 'NONE', #240, .T. ) ;
#137 = CARTESIAN_POINT ( 'NONE',  ( -2.500000000000000000, 0.000000000000000000, 0.000000000000000000 ) ) ;
#138 = AXIS2_PLACEMENT_3D ( 'NONE', #73, #69, #146 ) ;
#139 = FACE_OUTER_BOUND ( 'NONE', #29, .T. ) ;
#140 = EDGE_CURVE ( 'NONE', #164, #199, #122, .T. ) ;
#141 = CIRCLE ( 'NONE', #74, 1.250000000000000000 ) ;
#142 = ORIENTED_EDGE ( 'NONE', *, *, #150, .F. ) ;
#143 = LINE ( 'NONE', #116, #148 ) ;
#144 = DIRECTION ( 'NONE',  ( -0.000000000000000000, -0.000000000000000000, -1.000000000000000000 ) ) ;
#145 = PERSON_AND_ORGANIZATION ( #157, #100 ) ;
#146 = DIRECTION ( 'NONE',  ( 1.000000000000000000, 0.000000000000000000, 0.000000000000000000 ) ) ;
#147 = DATE_AND_TIME ( #173, #23 ) ;
#148 = VECTOR ( 'NONE', #144, 1000.000000000000000 ) ;
#149 = AXIS2_PLACEMENT_3D ( 'NONE', #13, #172, #128 ) ;
#150 = EDGE_CURVE ( 'NONE', #120, #124, #161, .T. ) ;
#151 = PERSON_AND_ORGANIZATION ( #157, #100 ) ;
#152 = FACE_OUTER_BOUND ( 'NONE', #242, .T. ) ;
#153 = EDGE_CURVE ( 'NONE', #199, #7, #97, .T. ) ;
#154 = DATE_AND_TIME ( #225, #174 ) ;
#155 = AXIS2_PLACEMENT_3D ( 'NONE', #248, #220, #210 ) ;
#156 = APPROVAL_ROLE ( '' ) ;
#157 = PERSON ( 'NEURÈENÝ', 'NEURÈENÝ', 'NEURÈENÝ', ('NEURÈENÝ'), ('NEURÈENÝ'), ('NEURÈENÝ') ) ;
#158 = APPLICATION_PROTOCOL_DEFINITION ( 'international standard', 'config_control_design', 1994, #169 ) ;
#159 = CARTESIAN_POINT ( 'NONE',  ( 0.000000000000000000, 0.000000000000000000, 0.000000000000000000 ) ) ;
#160 = AXIS2_PLACEMENT_3D ( 'NONE', #72, #229, #95 ) ;
#161 = CIRCLE ( 'NONE', #63, 2.500000000000000000 ) ;
#162 = ORIENTED_EDGE ( 'NONE', *, *, #46, .T. ) ;
#163 = DIRECTION ( 'NONE',  ( 1.000000000000000000, 0.000000000000000000, 0.000000000000000000 ) ) ;
#164 = VERTEX_POINT ( 'NONE', #31 ) ;
#165 = DIRECTION ( 'NONE',  ( -1.000000000000000000, 0.000000000000000000, 0.000000000000000000 ) ) ;
#166 = DIRECTION ( 'NONE',  ( -0.000000000000000000, -0.000000000000000000, -1.000000000000000000 ) ) ;
#167 = CARTESIAN_POINT ( 'NONE',  ( 2.500000000000000000, 3.061616997868383141E-16, 2.000000000000000000 ) ) ;
#168 = EDGE_LOOP ( 'NONE', ( #105, #142, #175, #162 ) ) ;
#169 = APPLICATION_CONTEXT ( 'configuration controlled 3d designs of mechanical parts and assemblies' ) ;
#170 = APPROVAL_ROLE ( '' ) ;
#171 = CC_DESIGN_APPROVAL ( #188, ( #132 ) ) ;
#172 = DIRECTION ( 'NONE',  ( 0.000000000000000000, 0.000000000000000000, 1.000000000000000000 ) ) ;
#173 = CALENDAR_DATE ( 2023, 12, 2 ) ;
#174 = LOCAL_TIME ( 13, 48, 21.00000000000000000, #250 ) ;
#175 = ORIENTED_EDGE ( 'NONE', *, *, #212, .T. ) ;
#176 = PLANE ( 'NONE',  #86 ) ;
#177 = EDGE_CURVE ( 'NONE', #164, #2, #117, .T. ) ;
#178 = DIRECTION ( 'NONE',  ( 1.000000000000000000, 0.000000000000000000, 0.000000000000000000 ) ) ;
#179 = CARTESIAN_POINT ( 'NONE',  ( 0.000000000000000000, 0.000000000000000000, 0.000000000000000000 ) ) ;
#180 = CARTESIAN_POINT ( 'NONE',  ( -1.250000000000000000, 0.000000000000000000, 400.0000000000000000 ) ) ;
#181 = ORIENTED_EDGE ( 'NONE', *, *, #118, .T. ) ;
#182 = CYLINDRICAL_SURFACE ( 'NONE', #37, 2.500000000000000000 ) ;
#183 = ORIENTED_EDGE ( 'NONE', *, *, #150, .T. ) ;
#184 = ORIENTED_EDGE ( 'NONE', *, *, #75, .T. ) ;
#185 = CIRCLE ( 'NONE', #80, 1.250000000000000000 ) ;
#186 = APPROVAL_STATUS ( 'not_yet_approved' ) ;
#187 = PERSON_AND_ORGANIZATION_ROLE ( 'design_supplier' ) ;
#188 = APPROVAL ( #186, 'NEURÈENÝ' ) ;
#189 = PERSON_AND_ORGANIZATION_ROLE ( 'creator' ) ;
#190 = ADVANCED_FACE ( 'NONE', ( #136, #234 ), #176, .T. ) ;
#191 = CARTESIAN_POINT ( 'NONE',  ( 0.000000000000000000, 0.000000000000000000, 2.000000000000000000 ) ) ;
#192 = AXIS2_PLACEMENT_3D ( 'NONE', #5, #89, #165 ) ;
#193 = AXIS2_PLACEMENT_3D ( 'NONE', #84, #238, #208 ) ;
#194 = CARTESIAN_POINT ( 'NONE',  ( 0.000000000000000000, 0.000000000000000000, 2.000000000000000000 ) ) ;
#195 = ORIENTED_EDGE ( 'NONE', *, *, #204, .T. ) ;
#196 = CC_DESIGN_DATE_AND_TIME_ASSIGNMENT ( #154, #206, ( #132 ) ) ;
#197 = CYLINDRICAL_SURFACE ( 'NONE', #192, 2.500000000000000000 ) ;
#198 = VERTEX_POINT ( 'NONE', #137 ) ;
#199 = VERTEX_POINT ( 'NONE', #41 ) ;
#200 = DIRECTION ( 'NONE',  ( -0.000000000000000000, -0.000000000000000000, -1.000000000000000000 ) ) ;
#201 = ORIENTED_EDGE ( 'NONE', *, *, #212, .F. ) ;
#202 = APPROVAL_STATUS ( 'not_yet_approved' ) ;
#203 = CARTESIAN_POINT ( 'NONE',  ( 2.500000000000000000, 3.061616997868383141E-16, 0.000000000000000000 ) ) ;
#204 = EDGE_CURVE ( 'NONE', #2, #7, #112, .T. ) ;
#205 = CC_DESIGN_PERSON_AND_ORGANIZATION_ASSIGNMENT ( #151, #189, ( #252 ) ) ;
#206 = DATE_TIME_ROLE ( 'creation_date' ) ;
#207 = ORIENTED_EDGE ( 'NONE', *, *, #177, .T. ) ;
#208 = DIRECTION ( 'NONE',  ( 1.000000000000000000, 0.000000000000000000, -0.000000000000000000 ) ) ;
#209 = VECTOR ( 'NONE', #50, 1000.000000000000000 ) ;
#210 = DIRECTION ( 'NONE',  ( 1.000000000000000000, 0.000000000000000000, 0.000000000000000000 ) ) ;
#211 = AXIS2_PLACEMENT_3D ( 'NONE', #159, #232, #134 ) ;
#212 = EDGE_CURVE ( 'NONE', #120, #198, #143, .T. ) ;
#213 = LOCAL_TIME ( 13, 48, 21.00000000000000000, #222 ) ;
#214 = CC_DESIGN_PERSON_AND_ORGANIZATION_ASSIGNMENT ( #19, #253, ( #106 ) ) ;
#215 = ORIENTED_EDGE ( 'NONE', *, *, #46, .F. ) ;
#216 = DIRECTION ( 'NONE',  ( -1.000000000000000000, 0.000000000000000000, 0.000000000000000000 ) ) ;
#217 = DIRECTION ( 'NONE',  ( -0.000000000000000000, -0.000000000000000000, -1.000000000000000000 ) ) ;
#218 = DATE_AND_TIME ( #251, #40 ) ;
#219 = DIRECTION ( 'NONE',  ( -1.000000000000000000, 0.000000000000000000, 0.000000000000000000 ) ) ;
#220 = DIRECTION ( 'NONE',  ( 0.000000000000000000, 0.000000000000000000, 1.000000000000000000 ) ) ;
#221 = APPROVAL ( #92, 'NEURÈENÝ' ) ;
#222 = COORDINATED_UNIVERSAL_TIME_OFFSET ( 1, 0, .AHEAD. ) ;
#223 = DIRECTION ( 'NONE',  ( 0.000000000000000000, 0.000000000000000000, 1.000000000000000000 ) ) ;
#224 = ADVANCED_FACE ( 'NONE', ( #139 ), #197, .T. ) ;
#225 = CALENDAR_DATE ( 2023, 12, 2 ) ;
#226 = PLANE ( 'NONE',  #193 ) ;
#227 = COORDINATED_UNIVERSAL_TIME_OFFSET ( 1, 0, .AHEAD. ) ;
#228 = DESIGN_CONTEXT ( 'detailed design', #169, 'design' ) ;
#229 = DIRECTION ( 'NONE',  ( 0.000000000000000000, 0.000000000000000000, 1.000000000000000000 ) ) ;
#230 = ADVANCED_FACE ( 'NONE', ( #243 ), #66, .T. ) ;
#231 = CARTESIAN_POINT ( 'NONE',  ( -1.250000000000000000, 0.000000000000000000, 2.000000000000000000 ) ) ;
#232 = DIRECTION ( 'NONE',  ( 0.000000000000000000, 0.000000000000000000, 1.000000000000000000 ) ) ;
#233 = ORIENTED_EDGE ( 'NONE', *, *, #103, .T. ) ;
#234 = FACE_OUTER_BOUND ( 'NONE', #39, .T. ) ;
#235 = PLANE ( 'NONE',  #211 ) ;
#236 = DIRECTION ( 'NONE',  ( 0.000000000000000000, 0.000000000000000000, 1.000000000000000000 ) ) ;
#237 = DIRECTION ( 'NONE',  ( 1.000000000000000000, 0.000000000000000000, -0.000000000000000000 ) ) ;
#238 = DIRECTION ( 'NONE',  ( 0.000000000000000000, 0.000000000000000000, 1.000000000000000000 ) ) ;
#239 = APPROVAL_PERSON_ORGANIZATION ( #68, #188, #156 ) ;
#240 = EDGE_LOOP ( 'NONE', ( #88, #115 ) ) ;
#241 = CIRCLE ( 'NONE', #131, 2.500000000000000000 ) ;
#242 = EDGE_LOOP ( 'NONE', ( #233, #207 ) ) ;
#243 = FACE_OUTER_BOUND ( 'NONE', #11, .T. ) ;
#244 = CARTESIAN_POINT ( 'NONE',  ( 0.000000000000000000, 0.000000000000000000, 400.0000000000000000 ) ) ;
#245 = APPROVAL_PERSON_ORGANIZATION ( #18, #221, #170 ) ;
#246 = VERTEX_POINT ( 'NONE', #203 ) ;
#247 = EDGE_LOOP ( 'NONE', ( #3, #49, #64, #85 ) ) ;
#248 = CARTESIAN_POINT ( 'NONE',  ( 0.000000000000000000, 0.000000000000000000, 2.000000000000000000 ) ) ;
#249 = DATE_TIME_ROLE ( 'classification_date' ) ;
#250 = COORDINATED_UNIVERSAL_TIME_OFFSET ( 1, 0, .AHEAD. ) ;
#251 = CALENDAR_DATE ( 2023, 12, 2 ) ;
#252 = PRODUCT_DEFINITION_FORMATION_WITH_SPECIFIED_SOURCE ( 'LIBOVOLNÝ', '', #106, .NOT_KNOWN. ) ;
#253 = PERSON_AND_ORGANIZATION_ROLE ( 'design_owner' ) ;
#254 = AXIS2_PLACEMENT_3D ( 'NONE', #244, #166, #216 ) ;
#255 = DIRECTION ( 'NONE',  ( 0.000000000000000000, 0.000000000000000000, 1.000000000000000000 ) ) ;
ENDSEC;
END-ISO-10303-21;
