ISO-10303-21;
HEADER;
FILE_DESCRIPTION (( 'STEP AP203' ),
    '1' );
FILE_NAME ('3619.STEP',
    '2023-02-12T12:08:13',
    ( '' ),
    ( '' ),
    'SwSTEP 2.0',
    'SolidWorks 2019',
    '' );
FILE_SCHEMA (( 'CONFIG_CONTROL_DESIGN' ));
ENDSEC;

DATA;
#1 = CC_DESIGN_APPROVAL ( #2, ( #203 ) ) ;
#2 = APPROVAL ( #142, 'NEURÈENÝ' ) ;
#3 = CC_DESIGN_APPROVAL ( #105, ( #151 ) ) ;
#4 = AXIS2_PLACEMENT_3D ( 'NONE', #173, #60, #137 ) ;
#5 = AXIS2_PLACEMENT_3D ( 'NONE', #228, #221, #149 ) ;
#6 = AXIS2_PLACEMENT_3D ( 'NONE', #242, #72, #194 ) ;
#7 = ORIENTED_EDGE ( 'NONE', *, *, #177, .T. ) ;
#8 = FACE_BOUND ( 'NONE', #210, .T. ) ;
#9 = ORIENTED_EDGE ( 'NONE', *, *, #205, .F. ) ;
#10 = DIRECTION ( 'NONE',  ( 1.000000000000000000, 0.000000000000000000, 0.000000000000000000 ) ) ;
#11 = ADVANCED_FACE ( 'NONE', ( #136 ), #53, .T. ) ;
#12 = VERTEX_POINT ( 'NONE', #58 ) ;
#13 =( LENGTH_UNIT ( ) NAMED_UNIT ( * ) SI_UNIT ( .MILLI., .METRE. ) );
#14 = CARTESIAN_POINT ( 'NONE',  ( 0.000000000000000000, 0.000000000000000000, 0.000000000000000000 ) ) ;
#15 = AXIS2_PLACEMENT_3D ( 'NONE', #120, #145, #183 ) ;
#16 = EDGE_CURVE ( 'NONE', #241, #155, #208, .T. ) ;
#17 = CARTESIAN_POINT ( 'NONE',  ( 0.000000000000000000, 0.000000000000000000, 5.000000000000000000 ) ) ;
#18 = PERSON_AND_ORGANIZATION ( #180, #202 ) ;
#19 = CYLINDRICAL_SURFACE ( 'NONE', #4, 3.250000000000000444 ) ;
#20 = PERSON_AND_ORGANIZATION ( #180, #202 ) ;
#21 = CARTESIAN_POINT ( 'NONE',  ( 3.250000000000000444, 3.980102097228898231E-16, 200.0000000000000000 ) ) ;
#22 = CIRCLE ( 'NONE', #178, 6.000000000000000888 ) ;
#23 = APPLICATION_PROTOCOL_DEFINITION ( 'international standard', 'config_control_design', 1994, #70 ) ;
#24 = COORDINATED_UNIVERSAL_TIME_OFFSET ( 1, 0, .AHEAD. ) ;
#25 = VERTEX_POINT ( 'NONE', #95 ) ;
#26 = APPROVAL ( #47, 'NEURÈENÝ' ) ;
#27 = PLANE ( 'NONE',  #135 ) ;
#28 = LINE ( 'NONE', #187, #98 ) ;
#29 = APPROVAL_PERSON_ORGANIZATION ( #18, #2, #104 ) ;
#30 = AXIS2_PLACEMENT_3D ( 'NONE', #143, #96, #109 ) ;
#31 = DIRECTION ( 'NONE',  ( -0.000000000000000000, -0.000000000000000000, -1.000000000000000000 ) ) ;
#32 = DIRECTION ( 'NONE',  ( 1.000000000000000000, 0.000000000000000000, 0.000000000000000000 ) ) ;
#33 = CARTESIAN_POINT ( 'NONE',  ( 0.000000000000000000, 0.000000000000000000, 5.000000000000000000 ) ) ;
#34 = EDGE_CURVE ( 'NONE', #144, #244, #220, .T. ) ;
#35 = DIRECTION ( 'NONE',  ( 1.000000000000000000, 0.000000000000000000, 0.000000000000000000 ) ) ;
#36 = COORDINATED_UNIVERSAL_TIME_OFFSET ( 1, 0, .AHEAD. ) ;
#37 = DIRECTION ( 'NONE',  ( 0.000000000000000000, 0.000000000000000000, 1.000000000000000000 ) ) ;
#38 = CC_DESIGN_APPROVAL ( #26, ( #61 ) ) ;
#39 = PERSON_AND_ORGANIZATION ( #180, #202 ) ;
#40 = PLANE ( 'NONE',  #15 ) ;
#41 = DATE_AND_TIME ( #251, #92 ) ;
#42 = EDGE_CURVE ( 'NONE', #144, #12, #123, .T. ) ;
#43 = EDGE_LOOP ( 'NONE', ( #108, #73, #74, #138 ) ) ;
#44 = VECTOR ( 'NONE', #223, 1000.000000000000000 ) ;
#45 = AXIS2_PLACEMENT_3D ( 'NONE', #154, #37, #252 ) ;
#46 = ADVANCED_BREP_SHAPE_REPRESENTATION ( '3619', ( #125, #165 ), #126 ) ;
#47 = APPROVAL_STATUS ( 'not_yet_approved' ) ;
#48 = CC_DESIGN_PERSON_AND_ORGANIZATION_ASSIGNMENT ( #20, #103, ( #203 ) ) ;
#49 = FACE_OUTER_BOUND ( 'NONE', #43, .T. ) ;
#50 = ORIENTED_EDGE ( 'NONE', *, *, #107, .T. ) ;
#51 = CARTESIAN_POINT ( 'NONE',  ( 3.250000000000000444, 3.980102097228898231E-16, 200.0000000000000000 ) ) ;
#52 = CC_DESIGN_SECURITY_CLASSIFICATION ( #61, ( #203 ) ) ;
#53 = CYLINDRICAL_SURFACE ( 'NONE', #5, 6.000000000000000888 ) ;
#54 = CARTESIAN_POINT ( 'NONE',  ( 0.000000000000000000, 0.000000000000000000, 200.0000000000000000 ) ) ;
#55 = ORIENTED_EDGE ( 'NONE', *, *, #34, .F. ) ;
#56 = DATE_TIME_ROLE ( 'creation_date' ) ;
#57 = DIRECTION ( 'NONE',  ( 0.000000000000000000, 0.000000000000000000, 1.000000000000000000 ) ) ;
#58 = CARTESIAN_POINT ( 'NONE',  ( -6.000000000000000888, 0.000000000000000000, 5.000000000000000000 ) ) ;
#59 =( NAMED_UNIT ( * ) PLANE_ANGLE_UNIT ( ) SI_UNIT ( $, .RADIAN. ) );
#60 = DIRECTION ( 'NONE',  ( -0.000000000000000000, -0.000000000000000000, -1.000000000000000000 ) ) ;
#61 = SECURITY_CLASSIFICATION ( '', '', #214 ) ;
#62 = APPROVAL_DATE_TIME ( #254, #2 ) ;
#63 = PERSON_AND_ORGANIZATION ( #180, #202 ) ;
#64 = ADVANCED_FACE ( 'NONE', ( #49 ), #192, .T. ) ;
#65 = ADVANCED_FACE ( 'NONE', ( #134 ), #27, .F. ) ;
#66 = ORIENTED_EDGE ( 'NONE', *, *, #219, .F. ) ;
#67 = ORIENTED_EDGE ( 'NONE', *, *, #132, .T. ) ;
#68 = PERSON_AND_ORGANIZATION ( #180, #202 ) ;
#69 = CALENDAR_DATE ( 2023, 12, 2 ) ;
#70 = APPLICATION_CONTEXT ( 'configuration controlled 3d designs of mechanical parts and assemblies' ) ;
#71 = EDGE_LOOP ( 'NONE', ( #225, #7, #106, #185 ) ) ;
#72 = DIRECTION ( 'NONE',  ( -0.000000000000000000, -0.000000000000000000, -1.000000000000000000 ) ) ;
#73 = ORIENTED_EDGE ( 'NONE', *, *, #34, .T. ) ;
#74 = ORIENTED_EDGE ( 'NONE', *, *, #219, .T. ) ;
#75 = CARTESIAN_POINT ( 'NONE',  ( -6.000000000000000888, 0.000000000000000000, 0.000000000000000000 ) ) ;
#76 = EDGE_LOOP ( 'NONE', ( #166, #93, #200, #67 ) ) ;
#77 = DIRECTION ( 'NONE',  ( -0.000000000000000000, -0.000000000000000000, -1.000000000000000000 ) ) ;
#78 = DIRECTION ( 'NONE',  ( 1.000000000000000000, 0.000000000000000000, -0.000000000000000000 ) ) ;
#79 = CARTESIAN_POINT ( 'NONE',  ( 0.000000000000000000, 0.000000000000000000, 200.0000000000000000 ) ) ;
#80 =( NAMED_UNIT ( * ) SI_UNIT ( $, .STERADIAN. ) SOLID_ANGLE_UNIT ( ) );
#81 = CC_DESIGN_DATE_AND_TIME_ASSIGNMENT ( #189, #56, ( #151 ) ) ;
#82 = AXIS2_PLACEMENT_3D ( 'NONE', #17, #100, #172 ) ;
#83 = CALENDAR_DATE ( 2023, 12, 2 ) ;
#84 = CIRCLE ( 'NONE', #30, 3.250000000000000444 ) ;
#85 = EDGE_CURVE ( 'NONE', #241, #243, #232, .T. ) ;
#86 = AXIS2_PLACEMENT_3D ( 'NONE', #33, #188, #35 ) ;
#87 = APPROVAL_PERSON_ORGANIZATION ( #68, #26, #179 ) ;
#88 = CIRCLE ( 'NONE', #204, 6.000000000000000888 ) ;
#89 = SHAPE_DEFINITION_REPRESENTATION ( #131, #46 ) ;
#90 = EDGE_CURVE ( 'NONE', #12, #144, #22, .T. ) ;
#91 = CIRCLE ( 'NONE', #255, 3.250000000000000444 ) ;
#92 = LOCAL_TIME ( 13, 8, 13.00000000000000000, #101 ) ;
#93 = ORIENTED_EDGE ( 'NONE', *, *, #85, .F. ) ;
#94 = DIRECTION ( 'NONE',  ( -0.000000000000000000, -0.000000000000000000, -1.000000000000000000 ) ) ;
#95 = CARTESIAN_POINT ( 'NONE',  ( 3.250000000000000444, 3.980102097228898231E-16, 5.000000000000000000 ) ) ;
#96 = DIRECTION ( 'NONE',  ( 0.000000000000000000, 0.000000000000000000, 1.000000000000000000 ) ) ;
#97 = ORIENTED_EDGE ( 'NONE', *, *, #199, .T. ) ;
#98 = VECTOR ( 'NONE', #77, 1000.000000000000000 ) ;
#99 = DIRECTION ( 'NONE',  ( 0.000000000000000000, 0.000000000000000000, 1.000000000000000000 ) ) ;
#100 = DIRECTION ( 'NONE',  ( -0.000000000000000000, -0.000000000000000000, -1.000000000000000000 ) ) ;
#101 = COORDINATED_UNIVERSAL_TIME_OFFSET ( 1, 0, .AHEAD. ) ;
#102 = CARTESIAN_POINT ( 'NONE',  ( 0.000000000000000000, 0.000000000000000000, 5.000000000000000000 ) ) ;
#103 = PERSON_AND_ORGANIZATION_ROLE ( 'creator' ) ;
#104 = APPROVAL_ROLE ( '' ) ;
#105 = APPROVAL ( #193, 'NEURÈENÝ' ) ;
#106 = ORIENTED_EDGE ( 'NONE', *, *, #205, .T. ) ;
#107 = EDGE_CURVE ( 'NONE', #141, #244, #88, .T. ) ;
#108 = ORIENTED_EDGE ( 'NONE', *, *, #42, .F. ) ;
#109 = DIRECTION ( 'NONE',  ( 1.000000000000000000, 0.000000000000000000, 0.000000000000000000 ) ) ;
#110 = ORIENTED_EDGE ( 'NONE', *, *, #85, .T. ) ;
#111 = LINE ( 'NONE', #21, #191 ) ;
#112 = EDGE_LOOP ( 'NONE', ( #168, #66 ) ) ;
#113 = APPLICATION_PROTOCOL_DEFINITION ( 'international standard', 'config_control_design', 1994, #240 ) ;
#114 = DIRECTION ( 'NONE',  ( 0.000000000000000000, 0.000000000000000000, 1.000000000000000000 ) ) ;
#115 = CARTESIAN_POINT ( 'NONE',  ( -3.250000000000000444, 0.000000000000000000, 200.0000000000000000 ) ) ;
#116 = PERSON_AND_ORGANIZATION_ROLE ( 'design_supplier' ) ;
#117 = CLOSED_SHELL ( 'NONE', ( #218, #64, #11, #176, #65, #248, #239 ) ) ;
#118 = FACE_OUTER_BOUND ( 'NONE', #76, .T. ) ;
#119 = CALENDAR_DATE ( 2023, 12, 2 ) ;
#120 = CARTESIAN_POINT ( 'NONE',  ( 0.000000000000000000, 0.000000000000000000, 5.000000000000000000 ) ) ;
#121 = APPROVAL_ROLE ( '' ) ;
#122 = DIRECTION ( 'NONE',  ( 0.000000000000000000, 0.000000000000000000, 1.000000000000000000 ) ) ;
#123 = CIRCLE ( 'NONE', #86, 6.000000000000000888 ) ;
#124 = APPROVAL_PERSON_ORGANIZATION ( #229, #105, #121 ) ;
#125 = MANIFOLD_SOLID_BREP ( 'Pøidat vysunutím3', #117 ) ;
#126 =( GEOMETRIC_REPRESENTATION_CONTEXT ( 3 ) GLOBAL_UNCERTAINTY_ASSIGNED_CONTEXT ( ( #159 ) ) GLOBAL_UNIT_ASSIGNED_CONTEXT ( ( #13, #59, #80 ) ) REPRESENTATION_CONTEXT ( 'NONE', 'WORKASPACE' ) );
#127 = AXIS2_PLACEMENT_3D ( 'NONE', #79, #249, #245 ) ;
#128 = CC_DESIGN_DATE_AND_TIME_ASSIGNMENT ( #41, #253, ( #61 ) ) ;
#129 = AXIS2_PLACEMENT_3D ( 'NONE', #54, #230, #152 ) ;
#130 = LOCAL_TIME ( 13, 8, 13.00000000000000000, #24 ) ;
#131 = PRODUCT_DEFINITION_SHAPE ( 'NONE', 'NONE',  #151 ) ;
#132 = EDGE_CURVE ( 'NONE', #155, #25, #91, .T. ) ;
#133 = ORIENTED_EDGE ( 'NONE', *, *, #132, .F. ) ;
#134 = FACE_OUTER_BOUND ( 'NONE', #112, .T. ) ;
#135 = AXIS2_PLACEMENT_3D ( 'NONE', #250, #182, #78 ) ;
#136 = FACE_OUTER_BOUND ( 'NONE', #236, .T. ) ;
#137 = DIRECTION ( 'NONE',  ( -1.000000000000000000, 0.000000000000000000, 0.000000000000000000 ) ) ;
#138 = ORIENTED_EDGE ( 'NONE', *, *, #162, .F. ) ;
#139 = PLANE ( 'NONE',  #129 ) ;
#140 = CC_DESIGN_PERSON_AND_ORGANIZATION_ASSIGNMENT ( #39, #215, ( #238 ) ) ;
#141 = VERTEX_POINT ( 'NONE', #75 ) ;
#142 = APPROVAL_STATUS ( 'not_yet_approved' ) ;
#143 = CARTESIAN_POINT ( 'NONE',  ( 0.000000000000000000, 0.000000000000000000, 5.000000000000000000 ) ) ;
#144 = VERTEX_POINT ( 'NONE', #224 ) ;
#145 = DIRECTION ( 'NONE',  ( 0.000000000000000000, 0.000000000000000000, 1.000000000000000000 ) ) ;
#146 = DATE_AND_TIME ( #119, #181 ) ;
#147 = DIRECTION ( 'NONE',  ( 1.000000000000000000, 0.000000000000000000, 0.000000000000000000 ) ) ;
#148 = LOCAL_TIME ( 13, 8, 13.00000000000000000, #36 ) ;
#149 = DIRECTION ( 'NONE',  ( -1.000000000000000000, 0.000000000000000000, 0.000000000000000000 ) ) ;
#150 = ORIENTED_EDGE ( 'NONE', *, *, #42, .T. ) ;
#151 = PRODUCT_DEFINITION ( 'NEZNÁMÝ', '', #203, #234 ) ;
#152 = DIRECTION ( 'NONE',  ( 1.000000000000000000, 0.000000000000000000, -0.000000000000000000 ) ) ;
#153 = CARTESIAN_POINT ( 'NONE',  ( 6.000000000000000888, 7.347880794884120722E-16, 5.000000000000000000 ) ) ;
#154 = CARTESIAN_POINT ( 'NONE',  ( 0.000000000000000000, 0.000000000000000000, 0.000000000000000000 ) ) ;
#155 = VERTEX_POINT ( 'NONE', #171 ) ;
#156 = CYLINDRICAL_SURFACE ( 'NONE', #6, 3.250000000000000444 ) ;
#157 = ORIENTED_EDGE ( 'NONE', *, *, #90, .F. ) ;
#158 = FACE_OUTER_BOUND ( 'NONE', #246, .T. ) ;
#159 = UNCERTAINTY_MEASURE_WITH_UNIT (LENGTH_MEASURE( 1.000000000000000082E-05 ), #13, 'distance_accuracy_value', 'NONE');
#160 = COORDINATED_UNIVERSAL_TIME_OFFSET ( 1, 0, .AHEAD. ) ;
#161 = CIRCLE ( 'NONE', #45, 6.000000000000000888 ) ;
#162 = EDGE_CURVE ( 'NONE', #12, #141, #28, .T. ) ;
#163 = LOCAL_TIME ( 13, 8, 13.00000000000000000, #160 ) ;
#164 = PRODUCT_RELATED_PRODUCT_CATEGORY ( 'detail', '', ( #238 ) ) ;
#165 = AXIS2_PLACEMENT_3D ( 'NONE', #247, #122, #147 ) ;
#166 = ORIENTED_EDGE ( 'NONE', *, *, #177, .F. ) ;
#167 = CARTESIAN_POINT ( 'NONE',  ( 0.000000000000000000, 0.000000000000000000, 200.0000000000000000 ) ) ;
#168 = ORIENTED_EDGE ( 'NONE', *, *, #107, .F. ) ;
#169 = FACE_OUTER_BOUND ( 'NONE', #71, .T. ) ;
#170 = ORIENTED_EDGE ( 'NONE', *, *, #162, .T. ) ;
#171 = CARTESIAN_POINT ( 'NONE',  ( -3.250000000000000444, 0.000000000000000000, 5.000000000000000000 ) ) ;
#172 = DIRECTION ( 'NONE',  ( -1.000000000000000000, 0.000000000000000000, 0.000000000000000000 ) ) ;
#173 = CARTESIAN_POINT ( 'NONE',  ( 0.000000000000000000, 0.000000000000000000, 200.0000000000000000 ) ) ;
#174 = PERSON_AND_ORGANIZATION ( #180, #202 ) ;
#175 = PERSON_AND_ORGANIZATION ( #180, #202 ) ;
#176 = ADVANCED_FACE ( 'NONE', ( #8, #196 ), #40, .T. ) ;
#177 = EDGE_CURVE ( 'NONE', #243, #25, #111, .T. ) ;
#178 = AXIS2_PLACEMENT_3D ( 'NONE', #102, #114, #190 ) ;
#179 = APPROVAL_ROLE ( '' ) ;
#180 = PERSON ( 'NEURÈENÝ', 'NEURÈENÝ', 'NEURÈENÝ', ('NEURÈENÝ'), ('NEURÈENÝ'), ('NEURÈENÝ') ) ;
#181 = LOCAL_TIME ( 13, 8, 13.00000000000000000, #226 ) ;
#182 = DIRECTION ( 'NONE',  ( 0.000000000000000000, 0.000000000000000000, 1.000000000000000000 ) ) ;
#183 = DIRECTION ( 'NONE',  ( 1.000000000000000000, 0.000000000000000000, -0.000000000000000000 ) ) ;
#184 = AXIS2_PLACEMENT_3D ( 'NONE', #167, #57, #32 ) ;
#185 = ORIENTED_EDGE ( 'NONE', *, *, #16, .F. ) ;
#186 = EDGE_LOOP ( 'NONE', ( #206, #150 ) ) ;
#187 = CARTESIAN_POINT ( 'NONE',  ( -6.000000000000000888, 0.000000000000000000, 5.000000000000000000 ) ) ;
#188 = DIRECTION ( 'NONE',  ( 0.000000000000000000, 0.000000000000000000, 1.000000000000000000 ) ) ;
#189 = DATE_AND_TIME ( #233, #163 ) ;
#190 = DIRECTION ( 'NONE',  ( 1.000000000000000000, 0.000000000000000000, 0.000000000000000000 ) ) ;
#191 = VECTOR ( 'NONE', #94, 1000.000000000000000 ) ;
#192 = CYLINDRICAL_SURFACE ( 'NONE', #82, 6.000000000000000888 ) ;
#193 = APPROVAL_STATUS ( 'not_yet_approved' ) ;
#194 = DIRECTION ( 'NONE',  ( -1.000000000000000000, 0.000000000000000000, 0.000000000000000000 ) ) ;
#195 = MECHANICAL_CONTEXT ( 'NONE', #70, 'mechanical' ) ;
#196 = FACE_OUTER_BOUND ( 'NONE', #186, .T. ) ;
#197 = APPROVAL_DATE_TIME ( #146, #105 ) ;
#198 = VECTOR ( 'NONE', #31, 1000.000000000000000 ) ;
#199 = EDGE_CURVE ( 'NONE', #243, #241, #216, .T. ) ;
#200 = ORIENTED_EDGE ( 'NONE', *, *, #16, .T. ) ;
#201 = CC_DESIGN_PERSON_AND_ORGANIZATION_ASSIGNMENT ( #175, #211, ( #151 ) ) ;
#202 = ORGANIZATION ( 'NEURÈENÝ', 'NEURÈENÝ', '' ) ;
#203 = PRODUCT_DEFINITION_FORMATION_WITH_SPECIFIED_SOURCE ( 'LIBOVOLNÝ', '', #238, .NOT_KNOWN. ) ;
#204 = AXIS2_PLACEMENT_3D ( 'NONE', #14, #99, #227 ) ;
#205 = EDGE_CURVE ( 'NONE', #25, #155, #84, .T. ) ;
#206 = ORIENTED_EDGE ( 'NONE', *, *, #90, .T. ) ;
#207 = CARTESIAN_POINT ( 'NONE',  ( 0.000000000000000000, 0.000000000000000000, 5.000000000000000000 ) ) ;
#208 = LINE ( 'NONE', #115, #198 ) ;
#209 = CARTESIAN_POINT ( 'NONE',  ( -3.250000000000000444, 0.000000000000000000, 200.0000000000000000 ) ) ;
#210 = EDGE_LOOP ( 'NONE', ( #133, #9 ) ) ;
#211 = PERSON_AND_ORGANIZATION_ROLE ( 'creator' ) ;
#212 = DIRECTION ( 'NONE',  ( 0.000000000000000000, 0.000000000000000000, 1.000000000000000000 ) ) ;
#213 = CC_DESIGN_PERSON_AND_ORGANIZATION_ASSIGNMENT ( #174, #235, ( #61 ) ) ;
#214 = SECURITY_CLASSIFICATION_LEVEL ( 'unclassified' ) ;
#215 = PERSON_AND_ORGANIZATION_ROLE ( 'design_owner' ) ;
#216 = CIRCLE ( 'NONE', #184, 3.250000000000000444 ) ;
#217 = APPROVAL_DATE_TIME ( #237, #26 ) ;
#218 = ADVANCED_FACE ( 'NONE', ( #169 ), #156, .T. ) ;
#219 = EDGE_CURVE ( 'NONE', #244, #141, #161, .T. ) ;
#220 = LINE ( 'NONE', #153, #44 ) ;
#221 = DIRECTION ( 'NONE',  ( -0.000000000000000000, -0.000000000000000000, -1.000000000000000000 ) ) ;
#222 = CARTESIAN_POINT ( 'NONE',  ( 6.000000000000000888, 7.347880794884120722E-16, 0.000000000000000000 ) ) ;
#223 = DIRECTION ( 'NONE',  ( -0.000000000000000000, -0.000000000000000000, -1.000000000000000000 ) ) ;
#224 = CARTESIAN_POINT ( 'NONE',  ( 6.000000000000000888, 7.347880794884120722E-16, 5.000000000000000000 ) ) ;
#225 = ORIENTED_EDGE ( 'NONE', *, *, #199, .F. ) ;
#226 = COORDINATED_UNIVERSAL_TIME_OFFSET ( 1, 0, .AHEAD. ) ;
#227 = DIRECTION ( 'NONE',  ( 1.000000000000000000, 0.000000000000000000, 0.000000000000000000 ) ) ;
#228 = CARTESIAN_POINT ( 'NONE',  ( 0.000000000000000000, 0.000000000000000000, 5.000000000000000000 ) ) ;
#229 = PERSON_AND_ORGANIZATION ( #180, #202 ) ;
#230 = DIRECTION ( 'NONE',  ( 0.000000000000000000, 0.000000000000000000, 1.000000000000000000 ) ) ;
#231 = CC_DESIGN_PERSON_AND_ORGANIZATION_ASSIGNMENT ( #63, #116, ( #203 ) ) ;
#232 = CIRCLE ( 'NONE', #127, 3.250000000000000444 ) ;
#233 = CALENDAR_DATE ( 2023, 12, 2 ) ;
#234 = DESIGN_CONTEXT ( 'detailed design', #240, 'design' ) ;
#235 = PERSON_AND_ORGANIZATION_ROLE ( 'classification_officer' ) ;
#236 = EDGE_LOOP ( 'NONE', ( #55, #157, #170, #50 ) ) ;
#237 = DATE_AND_TIME ( #69, #130 ) ;
#238 = PRODUCT ( '3619', '3619', '', ( #195 ) ) ;
#239 = ADVANCED_FACE ( 'NONE', ( #158 ), #139, .T. ) ;
#240 = APPLICATION_CONTEXT ( 'configuration controlled 3d designs of mechanical parts and assemblies' ) ;
#241 = VERTEX_POINT ( 'NONE', #209 ) ;
#242 = CARTESIAN_POINT ( 'NONE',  ( 0.000000000000000000, 0.000000000000000000, 200.0000000000000000 ) ) ;
#243 = VERTEX_POINT ( 'NONE', #51 ) ;
#244 = VERTEX_POINT ( 'NONE', #222 ) ;
#245 = DIRECTION ( 'NONE',  ( 1.000000000000000000, 0.000000000000000000, 0.000000000000000000 ) ) ;
#246 = EDGE_LOOP ( 'NONE', ( #110, #97 ) ) ;
#247 = CARTESIAN_POINT ( 'NONE',  ( 0.000000000000000000, 0.000000000000000000, 0.000000000000000000 ) ) ;
#248 = ADVANCED_FACE ( 'NONE', ( #118 ), #19, .T. ) ;
#249 = DIRECTION ( 'NONE',  ( 0.000000000000000000, 0.000000000000000000, 1.000000000000000000 ) ) ;
#250 = CARTESIAN_POINT ( 'NONE',  ( 0.000000000000000000, 0.000000000000000000, 0.000000000000000000 ) ) ;
#251 = CALENDAR_DATE ( 2023, 12, 2 ) ;
#252 = DIRECTION ( 'NONE',  ( 1.000000000000000000, 0.000000000000000000, 0.000000000000000000 ) ) ;
#253 = DATE_TIME_ROLE ( 'classification_date' ) ;
#254 = DATE_AND_TIME ( #83, #148 ) ;
#255 = AXIS2_PLACEMENT_3D ( 'NONE', #207, #212, #10 ) ;
ENDSEC;
END-ISO-10303-21;
