ISO-10303-21;
HEADER;
FILE_DESCRIPTION (( 'STEP AP203' ),
    '1' );
FILE_NAME ('57de.STEP',
    '2023-02-12T11:46:47',
    ( '' ),
    ( '' ),
    'SwSTEP 2.0',
    'SolidWorks 2019',
    '' );
FILE_SCHEMA (( 'CONFIG_CONTROL_DESIGN' ));
ENDSEC;

DATA;
#1 = DIRECTION ( 'NONE',  ( -1.000000000000000000, 0.000000000000000000, 0.000000000000000000 ) ) ;
#2 = APPROVAL_STATUS ( 'not_yet_approved' ) ;
#3 = PERSON_AND_ORGANIZATION ( #27, #159 ) ;
#4 = ORIENTED_EDGE ( 'NONE', *, *, #76, .T. ) ;
#5 = AXIS2_PLACEMENT_3D ( 'NONE', #65, #222, #10 ) ;
#6 = APPROVAL_ROLE ( '' ) ;
#7 = EDGE_LOOP ( 'NONE', ( #46, #101, #97, #28 ) ) ;
#8 = EDGE_CURVE ( 'NONE', #239, #66, #51, .T. ) ;
#9 = ORIENTED_EDGE ( 'NONE', *, *, #34, .T. ) ;
#10 = DIRECTION ( 'NONE',  ( 1.000000000000000000, 0.000000000000000000, -0.000000000000000000 ) ) ;
#11 = DIRECTION ( 'NONE',  ( 0.000000000000000000, 0.000000000000000000, 1.000000000000000000 ) ) ;
#12 = ORIENTED_EDGE ( 'NONE', *, *, #8, .T. ) ;
#13 = CARTESIAN_POINT ( 'NONE',  ( 0.000000000000000000, 0.000000000000000000, 5.000000000000000000 ) ) ;
#14 = DIRECTION ( 'NONE',  ( 0.000000000000000000, 0.000000000000000000, 1.000000000000000000 ) ) ;
#15 = DIRECTION ( 'NONE',  ( -0.000000000000000000, -0.000000000000000000, -1.000000000000000000 ) ) ;
#16 = LINE ( 'NONE', #254, #102 ) ;
#17 = DIRECTION ( 'NONE',  ( -1.000000000000000000, 0.000000000000000000, 0.000000000000000000 ) ) ;
#18 = LOCAL_TIME ( 12, 46, 47.00000000000000000, #216 ) ;
#19 = PERSON_AND_ORGANIZATION_ROLE ( 'creator' ) ;
#20 = APPLICATION_CONTEXT ( 'configuration controlled 3d designs of mechanical parts and assemblies' ) ;
#21 = PERSON_AND_ORGANIZATION ( #27, #159 ) ;
#22 = CLOSED_SHELL ( 'NONE', ( #40, #210, #167, #188, #126, #71, #37 ) ) ;
#23 = APPROVAL_ROLE ( '' ) ;
#24 = EDGE_CURVE ( 'NONE', #100, #239, #69, .T. ) ;
#25 = AXIS2_PLACEMENT_3D ( 'NONE', #191, #73, #17 ) ;
#26 = CALENDAR_DATE ( 2023, 12, 2 ) ;
#27 = PERSON ( 'NEURÈENÝ', 'NEURÈENÝ', 'NEURÈENÝ', ('NEURÈENÝ'), ('NEURÈENÝ'), ('NEURÈENÝ') ) ;
#28 = ORIENTED_EDGE ( 'NONE', *, *, #68, .T. ) ;
#29 = EDGE_CURVE ( 'NONE', #100, #245, #47, .T. ) ;
#30 = DIRECTION ( 'NONE',  ( -1.000000000000000000, 0.000000000000000000, 0.000000000000000000 ) ) ;
#31 = ORIENTED_EDGE ( 'NONE', *, *, #197, .T. ) ;
#32 = ORIENTED_EDGE ( 'NONE', *, *, #214, .T. ) ;
#33 = CARTESIAN_POINT ( 'NONE',  ( 0.000000000000000000, 0.000000000000000000, 125.0000000000000000 ) ) ;
#34 = EDGE_CURVE ( 'NONE', #245, #100, #203, .T. ) ;
#35 = CARTESIAN_POINT ( 'NONE',  ( 0.000000000000000000, 0.000000000000000000, 5.000000000000000000 ) ) ;
#36 = DIRECTION ( 'NONE',  ( -0.000000000000000000, -0.000000000000000000, -1.000000000000000000 ) ) ;
#37 = ADVANCED_FACE ( 'NONE', ( #185 ), #247, .T. ) ;
#38 = CYLINDRICAL_SURFACE ( 'NONE', #251, 7.000000000000000000 ) ;
#39 = PERSON_AND_ORGANIZATION_ROLE ( 'classification_officer' ) ;
#40 = ADVANCED_FACE ( 'NONE', ( #141 ), #163, .T. ) ;
#41 = SECURITY_CLASSIFICATION_LEVEL ( 'unclassified' ) ;
#42 = APPROVAL_STATUS ( 'not_yet_approved' ) ;
#43 = PRODUCT_DEFINITION_FORMATION_WITH_SPECIFIED_SOURCE ( 'LIBOVOLNÝ', '', #130, .NOT_KNOWN. ) ;
#44 = APPROVAL_ROLE ( '' ) ;
#45 = ORIENTED_EDGE ( 'NONE', *, *, #29, .T. ) ;
#46 = ORIENTED_EDGE ( 'NONE', *, *, #235, .F. ) ;
#47 = CIRCLE ( 'NONE', #86, 7.000000000000000000 ) ;
#48 = CARTESIAN_POINT ( 'NONE',  ( 0.000000000000000000, 0.000000000000000000, 5.000000000000000000 ) ) ;
#49 = LOCAL_TIME ( 12, 46, 47.00000000000000000, #232 ) ;
#50 = ORIENTED_EDGE ( 'NONE', *, *, #214, .F. ) ;
#51 = CIRCLE ( 'NONE', #77, 7.000000000000000000 ) ;
#52 = ORIENTED_EDGE ( 'NONE', *, *, #29, .F. ) ;
#53 = VERTEX_POINT ( 'NONE', #165 ) ;
#54 = DIRECTION ( 'NONE',  ( 0.000000000000000000, 0.000000000000000000, 1.000000000000000000 ) ) ;
#55 = CC_DESIGN_DATE_AND_TIME_ASSIGNMENT ( #177, #95, ( #128 ) ) ;
#56 =( GEOMETRIC_REPRESENTATION_CONTEXT ( 3 ) GLOBAL_UNCERTAINTY_ASSIGNED_CONTEXT ( ( #153 ) ) GLOBAL_UNIT_ASSIGNED_CONTEXT ( ( #87, #250, #146 ) ) REPRESENTATION_CONTEXT ( 'NONE', 'WORKASPACE' ) );
#57 = CARTESIAN_POINT ( 'NONE',  ( -4.099999999999999645, 0.000000000000000000, 125.0000000000000000 ) ) ;
#58 = CARTESIAN_POINT ( 'NONE',  ( 4.099999999999999645, 5.021051876504147385E-16, 125.0000000000000000 ) ) ;
#59 = EDGE_LOOP ( 'NONE', ( #50, #175 ) ) ;
#60 = PERSON_AND_ORGANIZATION ( #27, #159 ) ;
#61 = PERSON_AND_ORGANIZATION_ROLE ( 'design_owner' ) ;
#62 = ORIENTED_EDGE ( 'NONE', *, *, #197, .F. ) ;
#63 = MECHANICAL_CONTEXT ( 'NONE', #249, 'mechanical' ) ;
#64 = APPROVAL_PERSON_ORGANIZATION ( #172, #90, #44 ) ;
#65 = CARTESIAN_POINT ( 'NONE',  ( 0.000000000000000000, 0.000000000000000000, 125.0000000000000000 ) ) ;
#66 = VERTEX_POINT ( 'NONE', #248 ) ;
#67 = PRODUCT_DEFINITION_SHAPE ( 'NONE', 'NONE',  #181 ) ;
#68 = EDGE_CURVE ( 'NONE', #213, #53, #108, .T. ) ;
#69 = LINE ( 'NONE', #184, #190 ) ;
#70 = DIRECTION ( 'NONE',  ( -0.000000000000000000, -0.000000000000000000, -1.000000000000000000 ) ) ;
#71 = ADVANCED_FACE ( 'NONE', ( #161 ), #205, .T. ) ;
#72 = CARTESIAN_POINT ( 'NONE',  ( 0.000000000000000000, 0.000000000000000000, 125.0000000000000000 ) ) ;
#73 = DIRECTION ( 'NONE',  ( -0.000000000000000000, -0.000000000000000000, -1.000000000000000000 ) ) ;
#74 = CARTESIAN_POINT ( 'NONE',  ( 0.000000000000000000, 0.000000000000000000, 0.000000000000000000 ) ) ;
#75 = PLANE ( 'NONE',  #200 ) ;
#76 = EDGE_CURVE ( 'NONE', #53, #213, #166, .T. ) ;
#77 = AXIS2_PLACEMENT_3D ( 'NONE', #160, #202, #143 ) ;
#78 = APPROVAL_DATE_TIME ( #193, #90 ) ;
#79 = APPROVAL_STATUS ( 'not_yet_approved' ) ;
#80 = APPROVAL_DATE_TIME ( #115, #150 ) ;
#81 = PRODUCT_RELATED_PRODUCT_CATEGORY ( 'detail', '', ( #130 ) ) ;
#82 = CARTESIAN_POINT ( 'NONE',  ( 0.000000000000000000, 0.000000000000000000, 125.0000000000000000 ) ) ;
#83 = DIRECTION ( 'NONE',  ( 1.000000000000000000, 0.000000000000000000, 0.000000000000000000 ) ) ;
#84 = CC_DESIGN_APPROVAL ( #150, ( #128 ) ) ;
#85 = CARTESIAN_POINT ( 'NONE',  ( 0.000000000000000000, 0.000000000000000000, 5.000000000000000000 ) ) ;
#86 = AXIS2_PLACEMENT_3D ( 'NONE', #85, #106, #145 ) ;
#87 =( LENGTH_UNIT ( ) NAMED_UNIT ( * ) SI_UNIT ( .MILLI., .METRE. ) );
#88 = AXIS2_PLACEMENT_3D ( 'NONE', #169, #152, #171 ) ;
#89 = CARTESIAN_POINT ( 'NONE',  ( 0.000000000000000000, 0.000000000000000000, 5.000000000000000000 ) ) ;
#90 = APPROVAL ( #2, 'NEURÈENÝ' ) ;
#91 = DESIGN_CONTEXT ( 'detailed design', #20, 'design' ) ;
#92 = FACE_OUTER_BOUND ( 'NONE', #122, .T. ) ;
#93 = FACE_OUTER_BOUND ( 'NONE', #179, .T. ) ;
#94 = CC_DESIGN_PERSON_AND_ORGANIZATION_ASSIGNMENT ( #3, #39, ( #128 ) ) ;
#95 = DATE_TIME_ROLE ( 'classification_date' ) ;
#96 = VERTEX_POINT ( 'NONE', #189 ) ;
#97 = ORIENTED_EDGE ( 'NONE', *, *, #110, .T. ) ;
#98 = PERSON_AND_ORGANIZATION ( #27, #159 ) ;
#99 = CALENDAR_DATE ( 2023, 12, 2 ) ;
#100 = VERTEX_POINT ( 'NONE', #170 ) ;
#101 = ORIENTED_EDGE ( 'NONE', *, *, #220, .F. ) ;
#102 = VECTOR ( 'NONE', #36, 1000.000000000000000 ) ;
#103 = ORIENTED_EDGE ( 'NONE', *, *, #34, .F. ) ;
#104 = VECTOR ( 'NONE', #107, 1000.000000000000000 ) ;
#105 = LOCAL_TIME ( 12, 46, 47.00000000000000000, #174 ) ;
#106 = DIRECTION ( 'NONE',  ( 0.000000000000000000, 0.000000000000000000, 1.000000000000000000 ) ) ;
#107 = DIRECTION ( 'NONE',  ( -0.000000000000000000, -0.000000000000000000, -1.000000000000000000 ) ) ;
#108 = CIRCLE ( 'NONE', #113, 4.099999999999999645 ) ;
#109 = CYLINDRICAL_SURFACE ( 'NONE', #25, 7.000000000000000000 ) ;
#110 = EDGE_CURVE ( 'NONE', #96, #213, #147, .T. ) ;
#111 = DIRECTION ( 'NONE',  ( 0.000000000000000000, 0.000000000000000000, 1.000000000000000000 ) ) ;
#112 = DIRECTION ( 'NONE',  ( 1.000000000000000000, 0.000000000000000000, 0.000000000000000000 ) ) ;
#113 = AXIS2_PLACEMENT_3D ( 'NONE', #48, #124, #144 ) ;
#114 = COORDINATED_UNIVERSAL_TIME_OFFSET ( 1, 0, .AHEAD. ) ;
#115 = DATE_AND_TIME ( #157, #105 ) ;
#116 = EDGE_LOOP ( 'NONE', ( #132, #103, #241, #32 ) ) ;
#117 = COORDINATED_UNIVERSAL_TIME_OFFSET ( 1, 0, .AHEAD. ) ;
#118 = DATE_AND_TIME ( #154, #49 ) ;
#119 = CC_DESIGN_DATE_AND_TIME_ASSIGNMENT ( #118, #176, ( #181 ) ) ;
#120 = CC_DESIGN_APPROVAL ( #90, ( #181 ) ) ;
#121 = EDGE_LOOP ( 'NONE', ( #135, #234 ) ) ;
#122 = EDGE_LOOP ( 'NONE', ( #52, #138, #12, #218 ) ) ;
#123 = LOCAL_TIME ( 12, 46, 47.00000000000000000, #114 ) ;
#124 = DIRECTION ( 'NONE',  ( 0.000000000000000000, 0.000000000000000000, 1.000000000000000000 ) ) ;
#125 = CARTESIAN_POINT ( 'NONE',  ( -4.099999999999999645, 0.000000000000000000, 5.000000000000000000 ) ) ;
#126 = ADVANCED_FACE ( 'NONE', ( #223 ), #253, .F. ) ;
#127 = APPLICATION_PROTOCOL_DEFINITION ( 'international standard', 'config_control_design', 1994, #249 ) ;
#128 = SECURITY_CLASSIFICATION ( '', '', #41 ) ;
#129 = DIRECTION ( 'NONE',  ( -0.000000000000000000, -0.000000000000000000, -1.000000000000000000 ) ) ;
#130 = PRODUCT ( '57de', '57de', '', ( #63 ) ) ;
#131 = CARTESIAN_POINT ( 'NONE',  ( 4.099999999999999645, 5.021051876504147385E-16, 125.0000000000000000 ) ) ;
#132 = ORIENTED_EDGE ( 'NONE', *, *, #24, .F. ) ;
#133 = CIRCLE ( 'NONE', #168, 7.000000000000000000 ) ;
#134 = DATE_AND_TIME ( #99, #206 ) ;
#135 = ORIENTED_EDGE ( 'NONE', *, *, #68, .F. ) ;
#136 = APPROVAL ( #42, 'NEURÈENÝ' ) ;
#137 = DIRECTION ( 'NONE',  ( 1.000000000000000000, 0.000000000000000000, 0.000000000000000000 ) ) ;
#138 = ORIENTED_EDGE ( 'NONE', *, *, #24, .T. ) ;
#139 = PERSON_AND_ORGANIZATION ( #27, #159 ) ;
#140 = EDGE_CURVE ( 'NONE', #245, #66, #16, .T. ) ;
#141 = FACE_OUTER_BOUND ( 'NONE', #204, .T. ) ;
#142 = AXIS2_PLACEMENT_3D ( 'NONE', #33, #244, #30 ) ;
#143 = DIRECTION ( 'NONE',  ( 1.000000000000000000, 0.000000000000000000, 0.000000000000000000 ) ) ;
#144 = DIRECTION ( 'NONE',  ( 1.000000000000000000, 0.000000000000000000, 0.000000000000000000 ) ) ;
#145 = DIRECTION ( 'NONE',  ( 1.000000000000000000, 0.000000000000000000, 0.000000000000000000 ) ) ;
#146 =( NAMED_UNIT ( * ) SI_UNIT ( $, .STERADIAN. ) SOLID_ANGLE_UNIT ( ) );
#147 = LINE ( 'NONE', #57, #148 ) ;
#148 = VECTOR ( 'NONE', #129, 1000.000000000000000 ) ;
#149 = LINE ( 'NONE', #131, #104 ) ;
#150 = APPROVAL ( #79, 'NEURÈENÝ' ) ;
#151 = FACE_OUTER_BOUND ( 'NONE', #116, .T. ) ;
#152 = DIRECTION ( 'NONE',  ( 0.000000000000000000, 0.000000000000000000, 1.000000000000000000 ) ) ;
#153 = UNCERTAINTY_MEASURE_WITH_UNIT (LENGTH_MEASURE( 1.000000000000000082E-05 ), #87, 'distance_accuracy_value', 'NONE');
#154 = CALENDAR_DATE ( 2023, 12, 2 ) ;
#155 = PERSON_AND_ORGANIZATION ( #27, #159 ) ;
#156 = ORIENTED_EDGE ( 'NONE', *, *, #235, .T. ) ;
#157 = CALENDAR_DATE ( 2023, 12, 2 ) ;
#158 = ORIENTED_EDGE ( 'NONE', *, *, #220, .T. ) ;
#159 = ORGANIZATION ( 'NEURÈENÝ', 'NEURÈENÝ', '' ) ;
#160 = CARTESIAN_POINT ( 'NONE',  ( 0.000000000000000000, 0.000000000000000000, 0.000000000000000000 ) ) ;
#161 = FACE_OUTER_BOUND ( 'NONE', #7, .T. ) ;
#162 = CC_DESIGN_PERSON_AND_ORGANIZATION_ASSIGNMENT ( #139, #198, ( #43 ) ) ;
#163 = CYLINDRICAL_SURFACE ( 'NONE', #178, 4.099999999999999645 ) ;
#164 = DIRECTION ( 'NONE',  ( 1.000000000000000000, 0.000000000000000000, 0.000000000000000000 ) ) ;
#165 = CARTESIAN_POINT ( 'NONE',  ( 4.099999999999999645, 5.021051876504147385E-16, 5.000000000000000000 ) ) ;
#166 = CIRCLE ( 'NONE', #243, 4.099999999999999645 ) ;
#167 = ADVANCED_FACE ( 'NONE', ( #151 ), #38, .T. ) ;
#168 = AXIS2_PLACEMENT_3D ( 'NONE', #74, #111, #228 ) ;
#169 = CARTESIAN_POINT ( 'NONE',  ( 0.000000000000000000, 0.000000000000000000, 125.0000000000000000 ) ) ;
#170 = CARTESIAN_POINT ( 'NONE',  ( 7.000000000000000000, 8.572527594031473190E-16, 5.000000000000000000 ) ) ;
#171 = DIRECTION ( 'NONE',  ( 1.000000000000000000, 0.000000000000000000, 0.000000000000000000 ) ) ;
#172 = PERSON_AND_ORGANIZATION ( #27, #159 ) ;
#173 = PERSON_AND_ORGANIZATION ( #27, #159 ) ;
#174 = COORDINATED_UNIVERSAL_TIME_OFFSET ( 1, 0, .AHEAD. ) ;
#175 = ORIENTED_EDGE ( 'NONE', *, *, #8, .F. ) ;
#176 = DATE_TIME_ROLE ( 'creation_date' ) ;
#177 = DATE_AND_TIME ( #240, #123 ) ;
#178 = AXIS2_PLACEMENT_3D ( 'NONE', #82, #70, #219 ) ;
#179 = EDGE_LOOP ( 'NONE', ( #9, #45 ) ) ;
#180 = DIRECTION ( 'NONE',  ( 0.000000000000000000, 0.000000000000000000, 1.000000000000000000 ) ) ;
#181 = PRODUCT_DEFINITION ( 'NEZNÁMÝ', '', #43, #91 ) ;
#182 = CARTESIAN_POINT ( 'NONE',  ( 0.000000000000000000, 0.000000000000000000, 5.000000000000000000 ) ) ;
#183 = AXIS2_PLACEMENT_3D ( 'NONE', #229, #208, #209 ) ;
#184 = CARTESIAN_POINT ( 'NONE',  ( 7.000000000000000000, 8.572527594031473190E-16, 5.000000000000000000 ) ) ;
#185 = FACE_OUTER_BOUND ( 'NONE', #237, .T. ) ;
#186 = AXIS2_PLACEMENT_3D ( 'NONE', #13, #180, #164 ) ;
#187 = CARTESIAN_POINT ( 'NONE',  ( 0.000000000000000000, 0.000000000000000000, 0.000000000000000000 ) ) ;
#188 = ADVANCED_FACE ( 'NONE', ( #207, #93 ), #75, .T. ) ;
#189 = CARTESIAN_POINT ( 'NONE',  ( -4.099999999999999645, 0.000000000000000000, 125.0000000000000000 ) ) ;
#190 = VECTOR ( 'NONE', #242, 1000.000000000000000 ) ;
#191 = CARTESIAN_POINT ( 'NONE',  ( 0.000000000000000000, 0.000000000000000000, 5.000000000000000000 ) ) ;
#192 = CC_DESIGN_PERSON_AND_ORGANIZATION_ASSIGNMENT ( #21, #212, ( #43 ) ) ;
#193 = DATE_AND_TIME ( #26, #18 ) ;
#194 = ORIENTED_EDGE ( 'NONE', *, *, #110, .F. ) ;
#195 = ADVANCED_BREP_SHAPE_REPRESENTATION ( '57de', ( #199, #231 ), #56 ) ;
#196 = APPROVAL_DATE_TIME ( #134, #136 ) ;
#197 = EDGE_CURVE ( 'NONE', #221, #96, #217, .T. ) ;
#198 = PERSON_AND_ORGANIZATION_ROLE ( 'creator' ) ;
#199 = MANIFOLD_SOLID_BREP ( 'Pøidat vysunutím3', #22 ) ;
#200 = AXIS2_PLACEMENT_3D ( 'NONE', #89, #14, #255 ) ;
#201 = APPROVAL_PERSON_ORGANIZATION ( #98, #150, #6 ) ;
#202 = DIRECTION ( 'NONE',  ( 0.000000000000000000, 0.000000000000000000, 1.000000000000000000 ) ) ;
#203 = CIRCLE ( 'NONE', #186, 7.000000000000000000 ) ;
#204 = EDGE_LOOP ( 'NONE', ( #62, #156, #4, #194 ) ) ;
#205 = CYLINDRICAL_SURFACE ( 'NONE', #142, 4.099999999999999645 ) ;
#206 = LOCAL_TIME ( 12, 46, 47.00000000000000000, #117 ) ;
#207 = FACE_BOUND ( 'NONE', #121, .T. ) ;
#208 = DIRECTION ( 'NONE',  ( 0.000000000000000000, 0.000000000000000000, 1.000000000000000000 ) ) ;
#209 = DIRECTION ( 'NONE',  ( 1.000000000000000000, 0.000000000000000000, -0.000000000000000000 ) ) ;
#210 = ADVANCED_FACE ( 'NONE', ( #92 ), #109, .T. ) ;
#211 = AXIS2_PLACEMENT_3D ( 'NONE', #72, #54, #112 ) ;
#212 = PERSON_AND_ORGANIZATION_ROLE ( 'design_supplier' ) ;
#213 = VERTEX_POINT ( 'NONE', #125 ) ;
#214 = EDGE_CURVE ( 'NONE', #66, #239, #133, .T. ) ;
#215 = APPLICATION_PROTOCOL_DEFINITION ( 'international standard', 'config_control_design', 1994, #20 ) ;
#216 = COORDINATED_UNIVERSAL_TIME_OFFSET ( 1, 0, .AHEAD. ) ;
#217 = CIRCLE ( 'NONE', #211, 4.099999999999999645 ) ;
#218 = ORIENTED_EDGE ( 'NONE', *, *, #140, .F. ) ;
#219 = DIRECTION ( 'NONE',  ( -1.000000000000000000, 0.000000000000000000, 0.000000000000000000 ) ) ;
#220 = EDGE_CURVE ( 'NONE', #96, #221, #227, .T. ) ;
#221 = VERTEX_POINT ( 'NONE', #58 ) ;
#222 = DIRECTION ( 'NONE',  ( 0.000000000000000000, 0.000000000000000000, 1.000000000000000000 ) ) ;
#223 = FACE_OUTER_BOUND ( 'NONE', #59, .T. ) ;
#224 = CARTESIAN_POINT ( 'NONE',  ( -7.000000000000000000, 0.000000000000000000, 5.000000000000000000 ) ) ;
#225 = CC_DESIGN_PERSON_AND_ORGANIZATION_ASSIGNMENT ( #173, #61, ( #130 ) ) ;
#226 = CARTESIAN_POINT ( 'NONE',  ( 7.000000000000000000, 8.572527594031473190E-16, 0.000000000000000000 ) ) ;
#227 = CIRCLE ( 'NONE', #88, 4.099999999999999645 ) ;
#228 = DIRECTION ( 'NONE',  ( 1.000000000000000000, 0.000000000000000000, 0.000000000000000000 ) ) ;
#229 = CARTESIAN_POINT ( 'NONE',  ( 0.000000000000000000, 0.000000000000000000, 0.000000000000000000 ) ) ;
#230 = CC_DESIGN_PERSON_AND_ORGANIZATION_ASSIGNMENT ( #155, #19, ( #181 ) ) ;
#231 = AXIS2_PLACEMENT_3D ( 'NONE', #187, #238, #137 ) ;
#232 = COORDINATED_UNIVERSAL_TIME_OFFSET ( 1, 0, .AHEAD. ) ;
#233 = APPROVAL_PERSON_ORGANIZATION ( #60, #136, #23 ) ;
#234 = ORIENTED_EDGE ( 'NONE', *, *, #76, .F. ) ;
#235 = EDGE_CURVE ( 'NONE', #221, #53, #149, .T. ) ;
#236 = SHAPE_DEFINITION_REPRESENTATION ( #67, #195 ) ;
#237 = EDGE_LOOP ( 'NONE', ( #158, #31 ) ) ;
#238 = DIRECTION ( 'NONE',  ( 0.000000000000000000, 0.000000000000000000, 1.000000000000000000 ) ) ;
#239 = VERTEX_POINT ( 'NONE', #226 ) ;
#240 = CALENDAR_DATE ( 2023, 12, 2 ) ;
#241 = ORIENTED_EDGE ( 'NONE', *, *, #140, .T. ) ;
#242 = DIRECTION ( 'NONE',  ( -0.000000000000000000, -0.000000000000000000, -1.000000000000000000 ) ) ;
#243 = AXIS2_PLACEMENT_3D ( 'NONE', #182, #11, #83 ) ;
#244 = DIRECTION ( 'NONE',  ( -0.000000000000000000, -0.000000000000000000, -1.000000000000000000 ) ) ;
#245 = VERTEX_POINT ( 'NONE', #224 ) ;
#246 = CC_DESIGN_APPROVAL ( #136, ( #43 ) ) ;
#247 = PLANE ( 'NONE',  #5 ) ;
#248 = CARTESIAN_POINT ( 'NONE',  ( -7.000000000000000000, 0.000000000000000000, 0.000000000000000000 ) ) ;
#249 = APPLICATION_CONTEXT ( 'configuration controlled 3d designs of mechanical parts and assemblies' ) ;
#250 =( NAMED_UNIT ( * ) PLANE_ANGLE_UNIT ( ) SI_UNIT ( $, .RADIAN. ) );
#251 = AXIS2_PLACEMENT_3D ( 'NONE', #35, #15, #1 ) ;
#252 = CC_DESIGN_SECURITY_CLASSIFICATION ( #128, ( #43 ) ) ;
#253 = PLANE ( 'NONE',  #183 ) ;
#254 = CARTESIAN_POINT ( 'NONE',  ( -7.000000000000000000, 0.000000000000000000, 5.000000000000000000 ) ) ;
#255 = DIRECTION ( 'NONE',  ( 1.000000000000000000, 0.000000000000000000, -0.000000000000000000 ) ) ;
ENDSEC;
END-ISO-10303-21;
