ISO-10303-21;
HEADER;
FILE_DESCRIPTION (( 'STEP AP203' ),
    '1' );
FILE_NAME ('3cfc.STEP',
    '2023-02-12T12:48:44',
    ( '' ),
    ( '' ),
    'SwSTEP 2.0',
    'SolidWorks 2019',
    '' );
FILE_SCHEMA (( 'CONFIG_CONTROL_DESIGN' ));
ENDSEC;

DATA;
#1 = DIRECTION ( 'NONE',  ( 1.000000000000000000, 0.000000000000000000, 0.000000000000000000 ) ) ;
#2 = DIRECTION ( 'NONE',  ( 1.000000000000000000, 0.000000000000000000, 0.000000000000000000 ) ) ;
#3 = PERSON_AND_ORGANIZATION_ROLE ( 'creator' ) ;
#4 = CALENDAR_DATE ( 2023, 12, 2 ) ;
#5 = DIRECTION ( 'NONE',  ( 1.000000000000000000, 0.000000000000000000, 0.000000000000000000 ) ) ;
#6 = APPROVAL_DATE_TIME ( #28, #252 ) ;
#7 = APPROVAL_STATUS ( 'not_yet_approved' ) ;
#8 = AXIS2_PLACEMENT_3D ( 'NONE', #254, #181, #1 ) ;
#9 = COORDINATED_UNIVERSAL_TIME_OFFSET ( 1, 0, .AHEAD. ) ;
#10 = CARTESIAN_POINT ( 'NONE',  ( 0.000000000000000000, 0.000000000000000000, 250.0000000000000000 ) ) ;
#11 = PERSON_AND_ORGANIZATION_ROLE ( 'design_supplier' ) ;
#12 = PLANE ( 'NONE',  #178 ) ;
#13 = ORIENTED_EDGE ( 'NONE', *, *, #154, .T. ) ;
#14 = CIRCLE ( 'NONE', #120, 1.250000000000000000 ) ;
#15 = ORIENTED_EDGE ( 'NONE', *, *, #34, .F. ) ;
#16 = FACE_OUTER_BOUND ( 'NONE', #208, .T. ) ;
#17 = ADVANCED_FACE ( 'NONE', ( #171 ), #247, .T. ) ;
#18 = CC_DESIGN_PERSON_AND_ORGANIZATION_ASSIGNMENT ( #110, #113, ( #39 ) ) ;
#19 = CARTESIAN_POINT ( 'NONE',  ( 0.000000000000000000, 0.000000000000000000, 0.000000000000000000 ) ) ;
#20 = CARTESIAN_POINT ( 'NONE',  ( -1.250000000000000000, 0.000000000000000000, 250.0000000000000000 ) ) ;
#21 = APPLICATION_CONTEXT ( 'configuration controlled 3d designs of mechanical parts and assemblies' ) ;
#22 = DIRECTION ( 'NONE',  ( 0.000000000000000000, 0.000000000000000000, 1.000000000000000000 ) ) ;
#23 = CC_DESIGN_APPROVAL ( #222, ( #39 ) ) ;
#24 = APPROVAL_DATE_TIME ( #235, #40 ) ;
#25 = EDGE_CURVE ( 'NONE', #244, #206, #26, .T. ) ;
#26 = CIRCLE ( 'NONE', #78, 1.250000000000000000 ) ;
#27 = DIRECTION ( 'NONE',  ( 0.000000000000000000, 0.000000000000000000, 1.000000000000000000 ) ) ;
#28 = DATE_AND_TIME ( #140, #95 ) ;
#29 = AXIS2_PLACEMENT_3D ( 'NONE', #128, #207, #131 ) ;
#30 = ORIENTED_EDGE ( 'NONE', *, *, #34, .T. ) ;
#31 = DIRECTION ( 'NONE',  ( -1.000000000000000000, 0.000000000000000000, 0.000000000000000000 ) ) ;
#32 = ADVANCED_BREP_SHAPE_REPRESENTATION ( '3cfc', ( #233, #246 ), #69 ) ;
#33 = PRODUCT_DEFINITION ( 'NEZNÁMÝ', '', #255, #133 ) ;
#34 = EDGE_CURVE ( 'NONE', #187, #174, #83, .T. ) ;
#35 = DIRECTION ( 'NONE',  ( 1.000000000000000000, 0.000000000000000000, 0.000000000000000000 ) ) ;
#36 = EDGE_CURVE ( 'NONE', #127, #250, #121, .T. ) ;
#37 = ORIENTED_EDGE ( 'NONE', *, *, #70, .T. ) ;
#38 = DIRECTION ( 'NONE',  ( -0.000000000000000000, -0.000000000000000000, -1.000000000000000000 ) ) ;
#39 = SECURITY_CLASSIFICATION ( '', '', #145 ) ;
#40 = APPROVAL ( #217, 'NEURÈENÝ' ) ;
#41 = DIRECTION ( 'NONE',  ( 0.000000000000000000, 0.000000000000000000, 1.000000000000000000 ) ) ;
#42 = COORDINATED_UNIVERSAL_TIME_OFFSET ( 1, 0, .AHEAD. ) ;
#43 = PERSON_AND_ORGANIZATION ( #213, #132 ) ;
#44 = CARTESIAN_POINT ( 'NONE',  ( 2.500000000000000000, 3.061616997868383141E-16, 0.000000000000000000 ) ) ;
#45 = APPROVAL_DATE_TIME ( #223, #222 ) ;
#46 = PERSON_AND_ORGANIZATION ( #213, #132 ) ;
#47 = CIRCLE ( 'NONE', #177, 2.500000000000000000 ) ;
#48 = ORIENTED_EDGE ( 'NONE', *, *, #25, .F. ) ;
#49 = DIRECTION ( 'NONE',  ( 1.000000000000000000, 0.000000000000000000, 0.000000000000000000 ) ) ;
#50 = EDGE_LOOP ( 'NONE', ( #48, #13, #118, #165 ) ) ;
#51 = FACE_OUTER_BOUND ( 'NONE', #115, .T. ) ;
#52 = DIRECTION ( 'NONE',  ( 0.000000000000000000, 0.000000000000000000, 1.000000000000000000 ) ) ;
#53 = AXIS2_PLACEMENT_3D ( 'NONE', #10, #41, #196 ) ;
#54 = CYLINDRICAL_SURFACE ( 'NONE', #219, 1.250000000000000000 ) ;
#55 = FACE_OUTER_BOUND ( 'NONE', #226, .T. ) ;
#56 = ADVANCED_FACE ( 'NONE', ( #158 ), #81, .T. ) ;
#57 = PRODUCT_RELATED_PRODUCT_CATEGORY ( 'detail', '', ( #97 ) ) ;
#58 = PLANE ( 'NONE',  #194 ) ;
#59 = COORDINATED_UNIVERSAL_TIME_OFFSET ( 1, 0, .AHEAD. ) ;
#60 = PERSON_AND_ORGANIZATION_ROLE ( 'creator' ) ;
#61 = CARTESIAN_POINT ( 'NONE',  ( 0.000000000000000000, 0.000000000000000000, 2.000000000000000000 ) ) ;
#62 = VECTOR ( 'NONE', #93, 1000.000000000000000 ) ;
#63 = APPROVAL_ROLE ( '' ) ;
#64 = ORIENTED_EDGE ( 'NONE', *, *, #70, .F. ) ;
#65 = CARTESIAN_POINT ( 'NONE',  ( 0.000000000000000000, 0.000000000000000000, 2.000000000000000000 ) ) ;
#66 = DATE_TIME_ROLE ( 'classification_date' ) ;
#67 = EDGE_LOOP ( 'NONE', ( #98, #150, #143, #15 ) ) ;
#68 = DIRECTION ( 'NONE',  ( 0.000000000000000000, 0.000000000000000000, 1.000000000000000000 ) ) ;
#69 =( GEOMETRIC_REPRESENTATION_CONTEXT ( 3 ) GLOBAL_UNCERTAINTY_ASSIGNED_CONTEXT ( ( #109 ) ) GLOBAL_UNIT_ASSIGNED_CONTEXT ( ( #91, #170, #164 ) ) REPRESENTATION_CONTEXT ( 'NONE', 'WORKASPACE' ) );
#70 = EDGE_CURVE ( 'NONE', #250, #127, #14, .T. ) ;
#71 = ORIENTED_EDGE ( 'NONE', *, *, #230, .F. ) ;
#72 = ORIENTED_EDGE ( 'NONE', *, *, #238, .T. ) ;
#73 = AXIS2_PLACEMENT_3D ( 'NONE', #129, #130, #228 ) ;
#74 = APPLICATION_CONTEXT ( 'configuration controlled 3d designs of mechanical parts and assemblies' ) ;
#75 = ORIENTED_EDGE ( 'NONE', *, *, #79, .F. ) ;
#76 = DIRECTION ( 'NONE',  ( 1.000000000000000000, 0.000000000000000000, 0.000000000000000000 ) ) ;
#77 = CARTESIAN_POINT ( 'NONE',  ( 1.250000000000000000, 1.530808498934191571E-16, 250.0000000000000000 ) ) ;
#78 = AXIS2_PLACEMENT_3D ( 'NONE', #198, #104, #2 ) ;
#79 = EDGE_CURVE ( 'NONE', #206, #244, #173, .T. ) ;
#80 = CARTESIAN_POINT ( 'NONE',  ( -2.500000000000000000, 0.000000000000000000, 0.000000000000000000 ) ) ;
#81 = CYLINDRICAL_SURFACE ( 'NONE', #124, 1.250000000000000000 ) ;
#82 = APPROVAL_ROLE ( '' ) ;
#83 = LINE ( 'NONE', #199, #214 ) ;
#84 = DIRECTION ( 'NONE',  ( 1.000000000000000000, 0.000000000000000000, 0.000000000000000000 ) ) ;
#85 = CALENDAR_DATE ( 2023, 12, 2 ) ;
#86 = DIRECTION ( 'NONE',  ( -0.000000000000000000, -0.000000000000000000, -1.000000000000000000 ) ) ;
#87 = CARTESIAN_POINT ( 'NONE',  ( 1.250000000000000000, 1.530808498934191571E-16, 250.0000000000000000 ) ) ;
#88 = CALENDAR_DATE ( 2023, 12, 2 ) ;
#89 = EDGE_LOOP ( 'NONE', ( #249, #146 ) ) ;
#90 = APPLICATION_PROTOCOL_DEFINITION ( 'international standard', 'config_control_design', 1994, #74 ) ;
#91 =( LENGTH_UNIT ( ) NAMED_UNIT ( * ) SI_UNIT ( .MILLI., .METRE. ) );
#92 = ORIENTED_EDGE ( 'NONE', *, *, #180, .F. ) ;
#93 = DIRECTION ( 'NONE',  ( -0.000000000000000000, -0.000000000000000000, -1.000000000000000000 ) ) ;
#94 = PLANE ( 'NONE',  #101 ) ;
#95 = LOCAL_TIME ( 13, 48, 44.00000000000000000, #42 ) ;
#96 = EDGE_LOOP ( 'NONE', ( #64, #167 ) ) ;
#97 = PRODUCT ( '3cfc', '3cfc', '', ( #126 ) ) ;
#98 = ORIENTED_EDGE ( 'NONE', *, *, #221, .F. ) ;
#99 = AXIS2_PLACEMENT_3D ( 'NONE', #61, #160, #5 ) ;
#100 = LINE ( 'NONE', #20, #234 ) ;
#101 = AXIS2_PLACEMENT_3D ( 'NONE', #152, #52, #205 ) ;
#102 = DIRECTION ( 'NONE',  ( 1.000000000000000000, 0.000000000000000000, -0.000000000000000000 ) ) ;
#103 = PERSON_AND_ORGANIZATION ( #213, #132 ) ;
#104 = DIRECTION ( 'NONE',  ( 0.000000000000000000, 0.000000000000000000, 1.000000000000000000 ) ) ;
#105 = ADVANCED_FACE ( 'NONE', ( #51 ), #248, .T. ) ;
#106 = CIRCLE ( 'NONE', #232, 2.500000000000000000 ) ;
#107 = ADVANCED_FACE ( 'NONE', ( #184 ), #12, .T. ) ;
#108 = CC_DESIGN_APPROVAL ( #40, ( #255 ) ) ;
#109 = UNCERTAINTY_MEASURE_WITH_UNIT (LENGTH_MEASURE( 1.000000000000000082E-05 ), #91, 'distance_accuracy_value', 'NONE');
#110 = PERSON_AND_ORGANIZATION ( #213, #132 ) ;
#111 = CARTESIAN_POINT ( 'NONE',  ( 0.000000000000000000, 0.000000000000000000, 0.000000000000000000 ) ) ;
#112 = VERTEX_POINT ( 'NONE', #44 ) ;
#113 = PERSON_AND_ORGANIZATION_ROLE ( 'classification_officer' ) ;
#114 = DIRECTION ( 'NONE',  ( -0.000000000000000000, -0.000000000000000000, -1.000000000000000000 ) ) ;
#115 = EDGE_LOOP ( 'NONE', ( #172, #202, #30, #153 ) ) ;
#116 = DIRECTION ( 'NONE',  ( 1.000000000000000000, 0.000000000000000000, -0.000000000000000000 ) ) ;
#117 = DIRECTION ( 'NONE',  ( -0.000000000000000000, -0.000000000000000000, -1.000000000000000000 ) ) ;
#118 = ORIENTED_EDGE ( 'NONE', *, *, #36, .T. ) ;
#119 = CARTESIAN_POINT ( 'NONE',  ( 0.000000000000000000, 0.000000000000000000, 250.0000000000000000 ) ) ;
#120 = AXIS2_PLACEMENT_3D ( 'NONE', #137, #27, #84 ) ;
#121 = CIRCLE ( 'NONE', #99, 1.250000000000000000 ) ;
#122 = CC_DESIGN_PERSON_AND_ORGANIZATION_ASSIGNMENT ( #225, #168, ( #97 ) ) ;
#123 = LOCAL_TIME ( 13, 48, 44.00000000000000000, #59 ) ;
#124 = AXIS2_PLACEMENT_3D ( 'NONE', #135, #86, #182 ) ;
#125 = ORIENTED_EDGE ( 'NONE', *, *, #221, .T. ) ;
#126 = MECHANICAL_CONTEXT ( 'NONE', #74, 'mechanical' ) ;
#127 = VERTEX_POINT ( 'NONE', #203 ) ;
#128 = CARTESIAN_POINT ( 'NONE',  ( 0.000000000000000000, 0.000000000000000000, 2.000000000000000000 ) ) ;
#129 = CARTESIAN_POINT ( 'NONE',  ( 0.000000000000000000, 0.000000000000000000, 2.000000000000000000 ) ) ;
#130 = DIRECTION ( 'NONE',  ( -0.000000000000000000, -0.000000000000000000, -1.000000000000000000 ) ) ;
#131 = DIRECTION ( 'NONE',  ( 1.000000000000000000, 0.000000000000000000, 0.000000000000000000 ) ) ;
#132 = ORGANIZATION ( 'NEURÈENÝ', 'NEURÈENÝ', '' ) ;
#133 = DESIGN_CONTEXT ( 'detailed design', #21, 'design' ) ;
#134 = FACE_BOUND ( 'NONE', #96, .T. ) ;
#135 = CARTESIAN_POINT ( 'NONE',  ( 0.000000000000000000, 0.000000000000000000, 250.0000000000000000 ) ) ;
#136 = PERSON_AND_ORGANIZATION ( #213, #132 ) ;
#137 = CARTESIAN_POINT ( 'NONE',  ( 0.000000000000000000, 0.000000000000000000, 2.000000000000000000 ) ) ;
#138 = PERSON_AND_ORGANIZATION ( #213, #132 ) ;
#139 = APPROVAL_PERSON_ORGANIZATION ( #138, #40, #82 ) ;
#140 = CALENDAR_DATE ( 2023, 12, 2 ) ;
#141 = CALENDAR_DATE ( 2023, 12, 2 ) ;
#142 = SHAPE_DEFINITION_REPRESENTATION ( #149, #32 ) ;
#143 = ORIENTED_EDGE ( 'NONE', *, *, #230, .T. ) ;
#144 = CARTESIAN_POINT ( 'NONE',  ( 0.000000000000000000, 0.000000000000000000, 250.0000000000000000 ) ) ;
#145 = SECURITY_CLASSIFICATION_LEVEL ( 'unclassified' ) ;
#146 = ORIENTED_EDGE ( 'NONE', *, *, #25, .T. ) ;
#147 = DIRECTION ( 'NONE',  ( -0.000000000000000000, -0.000000000000000000, -1.000000000000000000 ) ) ;
#148 = PERSON_AND_ORGANIZATION ( #213, #132 ) ;
#149 = PRODUCT_DEFINITION_SHAPE ( 'NONE', 'NONE',  #33 ) ;
#150 = ORIENTED_EDGE ( 'NONE', *, *, #161, .T. ) ;
#151 = DIRECTION ( 'NONE',  ( 0.000000000000000000, 0.000000000000000000, 1.000000000000000000 ) ) ;
#152 = CARTESIAN_POINT ( 'NONE',  ( 0.000000000000000000, 0.000000000000000000, 0.000000000000000000 ) ) ;
#153 = ORIENTED_EDGE ( 'NONE', *, *, #180, .T. ) ;
#154 = EDGE_CURVE ( 'NONE', #244, #127, #188, .T. ) ;
#155 = CC_DESIGN_PERSON_AND_ORGANIZATION_ASSIGNMENT ( #136, #11, ( #255 ) ) ;
#156 = CC_DESIGN_SECURITY_CLASSIFICATION ( #39, ( #255 ) ) ;
#157 = EDGE_CURVE ( 'NONE', #187, #241, #106, .T. ) ;
#158 = FACE_OUTER_BOUND ( 'NONE', #211, .T. ) ;
#159 = COORDINATED_UNIVERSAL_TIME_OFFSET ( 1, 0, .AHEAD. ) ;
#160 = DIRECTION ( 'NONE',  ( 0.000000000000000000, 0.000000000000000000, 1.000000000000000000 ) ) ;
#161 = EDGE_CURVE ( 'NONE', #241, #112, #166, .T. ) ;
#162 = VECTOR ( 'NONE', #117, 1000.000000000000000 ) ;
#163 = DATE_AND_TIME ( #85, #123 ) ;
#164 =( NAMED_UNIT ( * ) SI_UNIT ( $, .STERADIAN. ) SOLID_ANGLE_UNIT ( ) );
#165 = ORIENTED_EDGE ( 'NONE', *, *, #238, .F. ) ;
#166 = LINE ( 'NONE', #242, #162 ) ;
#167 = ORIENTED_EDGE ( 'NONE', *, *, #36, .F. ) ;
#168 = PERSON_AND_ORGANIZATION_ROLE ( 'design_owner' ) ;
#169 = ADVANCED_FACE ( 'NONE', ( #134, #55 ), #58, .T. ) ;
#170 =( NAMED_UNIT ( * ) PLANE_ANGLE_UNIT ( ) SI_UNIT ( $, .RADIAN. ) );
#171 = FACE_OUTER_BOUND ( 'NONE', #67, .T. ) ;
#172 = ORIENTED_EDGE ( 'NONE', *, *, #161, .F. ) ;
#173 = CIRCLE ( 'NONE', #53, 1.250000000000000000 ) ;
#174 = VERTEX_POINT ( 'NONE', #80 ) ;
#175 = DIRECTION ( 'NONE',  ( -1.000000000000000000, 0.000000000000000000, 0.000000000000000000 ) ) ;
#176 = DIRECTION ( 'NONE',  ( 0.000000000000000000, 0.000000000000000000, 1.000000000000000000 ) ) ;
#177 = AXIS2_PLACEMENT_3D ( 'NONE', #19, #176, #76 ) ;
#178 = AXIS2_PLACEMENT_3D ( 'NONE', #144, #209, #116 ) ;
#179 = CC_DESIGN_DATE_AND_TIME_ASSIGNMENT ( #163, #237, ( #33 ) ) ;
#180 = EDGE_CURVE ( 'NONE', #174, #112, #227, .T. ) ;
#181 = DIRECTION ( 'NONE',  ( 0.000000000000000000, 0.000000000000000000, 1.000000000000000000 ) ) ;
#182 = DIRECTION ( 'NONE',  ( -1.000000000000000000, 0.000000000000000000, 0.000000000000000000 ) ) ;
#183 = LOCAL_TIME ( 13, 48, 44.00000000000000000, #185 ) ;
#184 = FACE_OUTER_BOUND ( 'NONE', #89, .T. ) ;
#185 = COORDINATED_UNIVERSAL_TIME_OFFSET ( 1, 0, .AHEAD. ) ;
#186 = CARTESIAN_POINT ( 'NONE',  ( -1.250000000000000000, 0.000000000000000000, 2.000000000000000000 ) ) ;
#187 = VERTEX_POINT ( 'NONE', #215 ) ;
#188 = LINE ( 'NONE', #87, #62 ) ;
#189 = FACE_OUTER_BOUND ( 'NONE', #50, .T. ) ;
#190 = APPROVAL_STATUS ( 'not_yet_approved' ) ;
#191 = ORIENTED_EDGE ( 'NONE', *, *, #154, .F. ) ;
#192 = CARTESIAN_POINT ( 'NONE',  ( -1.250000000000000000, 0.000000000000000000, 250.0000000000000000 ) ) ;
#193 = ADVANCED_FACE ( 'NONE', ( #189 ), #54, .T. ) ;
#194 = AXIS2_PLACEMENT_3D ( 'NONE', #212, #22, #102 ) ;
#195 = LOCAL_TIME ( 13, 48, 44.00000000000000000, #159 ) ;
#196 = DIRECTION ( 'NONE',  ( 1.000000000000000000, 0.000000000000000000, 0.000000000000000000 ) ) ;
#197 = APPROVAL_PERSON_ORGANIZATION ( #148, #252, #239 ) ;
#198 = CARTESIAN_POINT ( 'NONE',  ( 0.000000000000000000, 0.000000000000000000, 250.0000000000000000 ) ) ;
#199 = CARTESIAN_POINT ( 'NONE',  ( -2.500000000000000000, 0.000000000000000000, 2.000000000000000000 ) ) ;
#200 = CC_DESIGN_DATE_AND_TIME_ASSIGNMENT ( #243, #66, ( #39 ) ) ;
#201 = LOCAL_TIME ( 13, 48, 44.00000000000000000, #9 ) ;
#202 = ORIENTED_EDGE ( 'NONE', *, *, #157, .F. ) ;
#203 = CARTESIAN_POINT ( 'NONE',  ( 1.250000000000000000, 1.530808498934191571E-16, 2.000000000000000000 ) ) ;
#204 = APPLICATION_PROTOCOL_DEFINITION ( 'international standard', 'config_control_design', 1994, #21 ) ;
#205 = DIRECTION ( 'NONE',  ( 1.000000000000000000, 0.000000000000000000, -0.000000000000000000 ) ) ;
#206 = VERTEX_POINT ( 'NONE', #192 ) ;
#207 = DIRECTION ( 'NONE',  ( 0.000000000000000000, 0.000000000000000000, 1.000000000000000000 ) ) ;
#208 = EDGE_LOOP ( 'NONE', ( #92, #71 ) ) ;
#209 = DIRECTION ( 'NONE',  ( 0.000000000000000000, 0.000000000000000000, 1.000000000000000000 ) ) ;
#210 = APPROVAL_PERSON_ORGANIZATION ( #46, #222, #63 ) ;
#211 = EDGE_LOOP ( 'NONE', ( #191, #75, #72, #37 ) ) ;
#212 = CARTESIAN_POINT ( 'NONE',  ( 0.000000000000000000, 0.000000000000000000, 2.000000000000000000 ) ) ;
#213 = PERSON ( 'NEURÈENÝ', 'NEURÈENÝ', 'NEURÈENÝ', ('NEURÈENÝ'), ('NEURÈENÝ'), ('NEURÈENÝ') ) ;
#214 = VECTOR ( 'NONE', #220, 1000.000000000000000 ) ;
#215 = CARTESIAN_POINT ( 'NONE',  ( -2.500000000000000000, 0.000000000000000000, 2.000000000000000000 ) ) ;
#216 = AXIS2_PLACEMENT_3D ( 'NONE', #245, #147, #31 ) ;
#217 = APPROVAL_STATUS ( 'not_yet_approved' ) ;
#218 = CC_DESIGN_PERSON_AND_ORGANIZATION_ASSIGNMENT ( #103, #3, ( #33 ) ) ;
#219 = AXIS2_PLACEMENT_3D ( 'NONE', #119, #38, #175 ) ;
#220 = DIRECTION ( 'NONE',  ( -0.000000000000000000, -0.000000000000000000, -1.000000000000000000 ) ) ;
#221 = EDGE_CURVE ( 'NONE', #241, #187, #240, .T. ) ;
#222 = APPROVAL ( #7, 'NEURÈENÝ' ) ;
#223 = DATE_AND_TIME ( #141, #201 ) ;
#224 = ORIENTED_EDGE ( 'NONE', *, *, #157, .T. ) ;
#225 = PERSON_AND_ORGANIZATION ( #213, #132 ) ;
#226 = EDGE_LOOP ( 'NONE', ( #224, #125 ) ) ;
#227 = CIRCLE ( 'NONE', #8, 2.500000000000000000 ) ;
#228 = DIRECTION ( 'NONE',  ( -1.000000000000000000, 0.000000000000000000, 0.000000000000000000 ) ) ;
#229 = CLOSED_SHELL ( 'NONE', ( #193, #17, #105, #169, #236, #56, #107 ) ) ;
#230 = EDGE_CURVE ( 'NONE', #112, #174, #47, .T. ) ;
#231 = CC_DESIGN_APPROVAL ( #252, ( #33 ) ) ;
#232 = AXIS2_PLACEMENT_3D ( 'NONE', #65, #151, #35 ) ;
#233 = MANIFOLD_SOLID_BREP ( 'Pøidat vysunutím3', #229 ) ;
#234 = VECTOR ( 'NONE', #114, 1000.000000000000000 ) ;
#235 = DATE_AND_TIME ( #4, #195 ) ;
#236 = ADVANCED_FACE ( 'NONE', ( #16 ), #94, .F. ) ;
#237 = DATE_TIME_ROLE ( 'creation_date' ) ;
#238 = EDGE_CURVE ( 'NONE', #206, #250, #100, .T. ) ;
#239 = APPROVAL_ROLE ( '' ) ;
#240 = CIRCLE ( 'NONE', #29, 2.500000000000000000 ) ;
#241 = VERTEX_POINT ( 'NONE', #253 ) ;
#242 = CARTESIAN_POINT ( 'NONE',  ( 2.500000000000000000, 3.061616997868383141E-16, 2.000000000000000000 ) ) ;
#243 = DATE_AND_TIME ( #88, #183 ) ;
#244 = VERTEX_POINT ( 'NONE', #77 ) ;
#245 = CARTESIAN_POINT ( 'NONE',  ( 0.000000000000000000, 0.000000000000000000, 2.000000000000000000 ) ) ;
#246 = AXIS2_PLACEMENT_3D ( 'NONE', #111, #68, #49 ) ;
#247 = CYLINDRICAL_SURFACE ( 'NONE', #73, 2.500000000000000000 ) ;
#248 = CYLINDRICAL_SURFACE ( 'NONE', #216, 2.500000000000000000 ) ;
#249 = ORIENTED_EDGE ( 'NONE', *, *, #79, .T. ) ;
#250 = VERTEX_POINT ( 'NONE', #186 ) ;
#251 = CC_DESIGN_PERSON_AND_ORGANIZATION_ASSIGNMENT ( #43, #60, ( #255 ) ) ;
#252 = APPROVAL ( #190, 'NEURÈENÝ' ) ;
#253 = CARTESIAN_POINT ( 'NONE',  ( 2.500000000000000000, 3.061616997868383141E-16, 2.000000000000000000 ) ) ;
#254 = CARTESIAN_POINT ( 'NONE',  ( 0.000000000000000000, 0.000000000000000000, 0.000000000000000000 ) ) ;
#255 = PRODUCT_DEFINITION_FORMATION_WITH_SPECIFIED_SOURCE ( 'LIBOVOLNÝ', '', #97, .NOT_KNOWN. ) ;
ENDSEC;
END-ISO-10303-21;
