ISO-10303-21;
HEADER;
FILE_DESCRIPTION (( 'STEP AP203' ),
    '1' );
FILE_NAME ('d4cb.STEP',
    '2023-02-12T10:45:54',
    ( '' ),
    ( '' ),
    'SwSTEP 2.0',
    'SolidWorks 2019',
    '' );
FILE_SCHEMA (( 'CONFIG_CONTROL_DESIGN' ));
ENDSEC;

DATA;
#1 = AXIS2_PLACEMENT_3D ( 'NONE', #78, #61, #237 ) ;
#2 = CARTESIAN_POINT ( 'NONE',  ( -7.000000000000000888, 0.000000000000000000, 7.000000000000000000 ) ) ;
#3 = CC_DESIGN_PERSON_AND_ORGANIZATION_ASSIGNMENT ( #58, #210, ( #120 ) ) ;
#4 = DATE_AND_TIME ( #194, #178 ) ;
#5 = PLANE ( 'NONE',  #199 ) ;
#6 = APPROVAL_ROLE ( '' ) ;
#7 = CIRCLE ( 'NONE', #33, 11.00000000000000000 ) ;
#8 = VECTOR ( 'NONE', #180, 1000.000000000000000 ) ;
#9 = DIRECTION ( 'NONE',  ( 1.000000000000000000, 0.000000000000000000, 0.000000000000000000 ) ) ;
#10 = ORIENTED_EDGE ( 'NONE', *, *, #158, .F. ) ;
#11 = ORIENTED_EDGE ( 'NONE', *, *, #113, .F. ) ;
#12 = ORIENTED_EDGE ( 'NONE', *, *, #104, .F. ) ;
#13 = CARTESIAN_POINT ( 'NONE',  ( 0.000000000000000000, 0.000000000000000000, 7.000000000000000000 ) ) ;
#14 = DIRECTION ( 'NONE',  ( 0.000000000000000000, 0.000000000000000000, 1.000000000000000000 ) ) ;
#15 = CARTESIAN_POINT ( 'NONE',  ( -11.00000000000000000, 0.000000000000000000, 7.000000000000000000 ) ) ;
#16 = DATE_AND_TIME ( #109, #49 ) ;
#17 = CIRCLE ( 'NONE', #195, 7.000000000000000888 ) ;
#18 = CC_DESIGN_DATE_AND_TIME_ASSIGNMENT ( #189, #86, ( #120 ) ) ;
#19 = DIRECTION ( 'NONE',  ( -0.000000000000000000, -0.000000000000000000, -1.000000000000000000 ) ) ;
#20 = CALENDAR_DATE ( 2023, 12, 2 ) ;
#21 = FACE_OUTER_BOUND ( 'NONE', #175, .T. ) ;
#22 = APPROVAL_DATE_TIME ( #4, #202 ) ;
#23 = CIRCLE ( 'NONE', #136, 11.00000000000000000 ) ;
#24 = FACE_BOUND ( 'NONE', #161, .T. ) ;
#25 = COORDINATED_UNIVERSAL_TIME_OFFSET ( 1, 0, .AHEAD. ) ;
#26 = ORIENTED_EDGE ( 'NONE', *, *, #141, .F. ) ;
#27 = EDGE_CURVE ( 'NONE', #144, #56, #231, .T. ) ;
#28 = CARTESIAN_POINT ( 'NONE',  ( 0.000000000000000000, 0.000000000000000000, 0.000000000000000000 ) ) ;
#29 = VECTOR ( 'NONE', #96, 1000.000000000000000 ) ;
#30 = ADVANCED_FACE ( 'NONE', ( #184 ), #201, .T. ) ;
#31 = CC_DESIGN_APPROVAL ( #154, ( #66 ) ) ;
#32 = LOCAL_TIME ( 11, 45, 54.00000000000000000, #112 ) ;
#33 = AXIS2_PLACEMENT_3D ( 'NONE', #169, #149, #148 ) ;
#34 = DIRECTION ( 'NONE',  ( -1.000000000000000000, 0.000000000000000000, 0.000000000000000000 ) ) ;
#35 = DIRECTION ( 'NONE',  ( 0.000000000000000000, 0.000000000000000000, 1.000000000000000000 ) ) ;
#36 = ORIENTED_EDGE ( 'NONE', *, *, #38, .F. ) ;
#37 = FACE_OUTER_BOUND ( 'NONE', #85, .T. ) ;
#38 = EDGE_CURVE ( 'NONE', #250, #110, #221, .T. ) ;
#39 = COORDINATED_UNIVERSAL_TIME_OFFSET ( 1, 0, .AHEAD. ) ;
#40 = ADVANCED_FACE ( 'NONE', ( #233 ), #207, .T. ) ;
#41 = DIRECTION ( 'NONE',  ( -0.000000000000000000, -0.000000000000000000, -1.000000000000000000 ) ) ;
#42 = CARTESIAN_POINT ( 'NONE',  ( 0.000000000000000000, 0.000000000000000000, 0.000000000000000000 ) ) ;
#43 = AXIS2_PLACEMENT_3D ( 'NONE', #186, #188, #74 ) ;
#44 = CARTESIAN_POINT ( 'NONE',  ( 0.000000000000000000, 0.000000000000000000, 7.000000000000000000 ) ) ;
#45 =( LENGTH_UNIT ( ) NAMED_UNIT ( * ) SI_UNIT ( .MILLI., .METRE. ) );
#46 = DIRECTION ( 'NONE',  ( 1.000000000000000000, 0.000000000000000000, -0.000000000000000000 ) ) ;
#47 = AXIS2_PLACEMENT_3D ( 'NONE', #105, #166, #163 ) ;
#48 = ORIENTED_EDGE ( 'NONE', *, *, #158, .T. ) ;
#49 = LOCAL_TIME ( 11, 45, 54.00000000000000000, #39 ) ;
#50 = DIRECTION ( 'NONE',  ( 1.000000000000000000, 0.000000000000000000, 0.000000000000000000 ) ) ;
#51 = ORIENTED_EDGE ( 'NONE', *, *, #141, .T. ) ;
#52 = AXIS2_PLACEMENT_3D ( 'NONE', #122, #182, #140 ) ;
#53 = EDGE_LOOP ( 'NONE', ( #244, #54, #75, #229 ) ) ;
#54 = ORIENTED_EDGE ( 'NONE', *, *, #146, .T. ) ;
#55 = ADVANCED_FACE ( 'NONE', ( #37 ), #107, .T. ) ;
#56 = VERTEX_POINT ( 'NONE', #70 ) ;
#57 = APPROVAL_ROLE ( '' ) ;
#58 = PERSON_AND_ORGANIZATION ( #211, #247 ) ;
#59 = CARTESIAN_POINT ( 'NONE',  ( 0.000000000000000000, 0.000000000000000000, 7.000000000000000000 ) ) ;
#60 = APPROVAL_ROLE ( '' ) ;
#61 = DIRECTION ( 'NONE',  ( -0.000000000000000000, -0.000000000000000000, -1.000000000000000000 ) ) ;
#62 = AXIS2_PLACEMENT_3D ( 'NONE', #249, #14, #125 ) ;
#63 = DIRECTION ( 'NONE',  ( 1.000000000000000000, 0.000000000000000000, -0.000000000000000000 ) ) ;
#64 = PRODUCT_DEFINITION_SHAPE ( 'NONE', 'NONE',  #120 ) ;
#65 = EDGE_CURVE ( 'NONE', #143, #88, #187, .T. ) ;
#66 = SECURITY_CLASSIFICATION ( '', '', #67 ) ;
#67 = SECURITY_CLASSIFICATION_LEVEL ( 'unclassified' ) ;
#68 = ORIENTED_EDGE ( 'NONE', *, *, #113, .T. ) ;
#69 = EDGE_LOOP ( 'NONE', ( #51, #204 ) ) ;
#70 = CARTESIAN_POINT ( 'NONE',  ( -11.00000000000000000, 0.000000000000000000, 0.000000000000000000 ) ) ;
#71 = ORIENTED_EDGE ( 'NONE', *, *, #65, .T. ) ;
#72 = CARTESIAN_POINT ( 'NONE',  ( 7.000000000000000888, 8.572527594031474176E-16, 7.000000000000000000 ) ) ;
#73 = EDGE_LOOP ( 'NONE', ( #11, #10 ) ) ;
#74 = DIRECTION ( 'NONE',  ( 1.000000000000000000, 0.000000000000000000, 0.000000000000000000 ) ) ;
#75 = ORIENTED_EDGE ( 'NONE', *, *, #205, .T. ) ;
#76 = APPROVAL_DATE_TIME ( #134, #154 ) ;
#77 = PERSON_AND_ORGANIZATION ( #211, #247 ) ;
#78 = CARTESIAN_POINT ( 'NONE',  ( 0.000000000000000000, 0.000000000000000000, 7.000000000000000000 ) ) ;
#79 = CARTESIAN_POINT ( 'NONE',  ( 0.000000000000000000, 0.000000000000000000, 7.000000000000000000 ) ) ;
#80 = AXIS2_PLACEMENT_3D ( 'NONE', #124, #35, #91 ) ;
#81 = ORIENTED_EDGE ( 'NONE', *, *, #27, .T. ) ;
#82 = PERSON_AND_ORGANIZATION ( #211, #247 ) ;
#83 = FACE_OUTER_BOUND ( 'NONE', #73, .T. ) ;
#84 = PLANE ( 'NONE',  #200 ) ;
#85 = EDGE_LOOP ( 'NONE', ( #223, #155 ) ) ;
#86 = DATE_TIME_ROLE ( 'creation_date' ) ;
#87 = CARTESIAN_POINT ( 'NONE',  ( 0.000000000000000000, 0.000000000000000000, 630.0000000000000000 ) ) ;
#88 = VERTEX_POINT ( 'NONE', #72 ) ;
#89 = CARTESIAN_POINT ( 'NONE',  ( 11.00000000000000000, 1.347111479062088405E-15, 7.000000000000000000 ) ) ;
#90 = MECHANICAL_CONTEXT ( 'NONE', #139, 'mechanical' ) ;
#91 = DIRECTION ( 'NONE',  ( 1.000000000000000000, 0.000000000000000000, 0.000000000000000000 ) ) ;
#92 = VECTOR ( 'NONE', #19, 1000.000000000000000 ) ;
#93 = ORIENTED_EDGE ( 'NONE', *, *, #27, .F. ) ;
#94 = DIRECTION ( 'NONE',  ( 1.000000000000000000, 0.000000000000000000, 0.000000000000000000 ) ) ;
#95 = CARTESIAN_POINT ( 'NONE',  ( 7.000000000000000888, 8.572527594031474176E-16, 630.0000000000000000 ) ) ;
#96 = DIRECTION ( 'NONE',  ( -0.000000000000000000, -0.000000000000000000, -1.000000000000000000 ) ) ;
#97 = COORDINATED_UNIVERSAL_TIME_OFFSET ( 1, 0, .AHEAD. ) ;
#98 = FACE_OUTER_BOUND ( 'NONE', #69, .T. ) ;
#99 = SHAPE_DEFINITION_REPRESENTATION ( #64, #190 ) ;
#100 = DESIGN_CONTEXT ( 'detailed design', #162, 'design' ) ;
#101 = ORIENTED_EDGE ( 'NONE', *, *, #123, .T. ) ;
#102 = CARTESIAN_POINT ( 'NONE',  ( 11.00000000000000000, 1.347111479062088405E-15, 7.000000000000000000 ) ) ;
#103 = CC_DESIGN_SECURITY_CLASSIFICATION ( #66, ( #197 ) ) ;
#104 = EDGE_CURVE ( 'NONE', #251, #179, #228, .T. ) ;
#105 = CARTESIAN_POINT ( 'NONE',  ( 0.000000000000000000, 0.000000000000000000, 630.0000000000000000 ) ) ;
#106 = VECTOR ( 'NONE', #142, 1000.000000000000000 ) ;
#107 = PLANE ( 'NONE',  #52 ) ;
#108 = EDGE_CURVE ( 'NONE', #251, #144, #135, .T. ) ;
#109 = CALENDAR_DATE ( 2023, 12, 2 ) ;
#110 = VERTEX_POINT ( 'NONE', #95 ) ;
#111 = ORIENTED_EDGE ( 'NONE', *, *, #65, .F. ) ;
#112 = COORDINATED_UNIVERSAL_TIME_OFFSET ( 1, 0, .AHEAD. ) ;
#113 = EDGE_CURVE ( 'NONE', #56, #179, #7, .T. ) ;
#114 = DIRECTION ( 'NONE',  ( -1.000000000000000000, 0.000000000000000000, 0.000000000000000000 ) ) ;
#115 = DIRECTION ( 'NONE',  ( 0.000000000000000000, 0.000000000000000000, 1.000000000000000000 ) ) ;
#116 = CC_DESIGN_APPROVAL ( #202, ( #197 ) ) ;
#117 = UNCERTAINTY_MEASURE_WITH_UNIT (LENGTH_MEASURE( 1.000000000000000082E-05 ), #45, 'distance_accuracy_value', 'NONE');
#118 = PERSON_AND_ORGANIZATION ( #211, #247 ) ;
#119 = CC_DESIGN_PERSON_AND_ORGANIZATION_ASSIGNMENT ( #118, #254, ( #66 ) ) ;
#120 = PRODUCT_DEFINITION ( 'NEZNÁMÝ', '', #197, #100 ) ;
#121 = CIRCLE ( 'NONE', #157, 7.000000000000000888 ) ;
#122 = CARTESIAN_POINT ( 'NONE',  ( 0.000000000000000000, 0.000000000000000000, 630.0000000000000000 ) ) ;
#123 = EDGE_CURVE ( 'NONE', #250, #143, #130, .T. ) ;
#124 = CARTESIAN_POINT ( 'NONE',  ( 0.000000000000000000, 0.000000000000000000, 7.000000000000000000 ) ) ;
#125 = DIRECTION ( 'NONE',  ( 1.000000000000000000, 0.000000000000000000, 0.000000000000000000 ) ) ;
#126 = APPROVAL_PERSON_ORGANIZATION ( #77, #154, #60 ) ;
#127 = DIRECTION ( 'NONE',  ( -0.000000000000000000, -0.000000000000000000, -1.000000000000000000 ) ) ;
#128 = CARTESIAN_POINT ( 'NONE',  ( 7.000000000000000888, 8.572527594031474176E-16, 630.0000000000000000 ) ) ;
#129 = CARTESIAN_POINT ( 'NONE',  ( -7.000000000000000888, 0.000000000000000000, 630.0000000000000000 ) ) ;
#130 = LINE ( 'NONE', #129, #29 ) ;
#131 = CC_DESIGN_PERSON_AND_ORGANIZATION_ASSIGNMENT ( #82, #198, ( #197 ) ) ;
#132 = AXIS2_PLACEMENT_3D ( 'NONE', #13, #227, #50 ) ;
#133 = DIRECTION ( 'NONE',  ( 0.000000000000000000, 0.000000000000000000, 1.000000000000000000 ) ) ;
#134 = DATE_AND_TIME ( #20, #219 ) ;
#135 = CIRCLE ( 'NONE', #80, 11.00000000000000000 ) ;
#136 = AXIS2_PLACEMENT_3D ( 'NONE', #42, #212, #94 ) ;
#137 = CC_DESIGN_PERSON_AND_ORGANIZATION_ASSIGNMENT ( #147, #183, ( #138 ) ) ;
#138 = PRODUCT ( 'd4cb', 'd4cb', '', ( #90 ) ) ;
#139 = APPLICATION_CONTEXT ( 'configuration controlled 3d designs of mechanical parts and assemblies' ) ;
#140 = DIRECTION ( 'NONE',  ( 1.000000000000000000, 0.000000000000000000, -0.000000000000000000 ) ) ;
#141 = EDGE_CURVE ( 'NONE', #144, #251, #193, .T. ) ;
#142 = DIRECTION ( 'NONE',  ( -0.000000000000000000, -0.000000000000000000, -1.000000000000000000 ) ) ;
#143 = VERTEX_POINT ( 'NONE', #2 ) ;
#144 = VERTEX_POINT ( 'NONE', #214 ) ;
#145 = PERSON_AND_ORGANIZATION ( #211, #247 ) ;
#146 = EDGE_CURVE ( 'NONE', #110, #88, #235, .T. ) ;
#147 = PERSON_AND_ORGANIZATION ( #211, #247 ) ;
#148 = DIRECTION ( 'NONE',  ( 1.000000000000000000, 0.000000000000000000, 0.000000000000000000 ) ) ;
#149 = DIRECTION ( 'NONE',  ( 0.000000000000000000, 0.000000000000000000, 1.000000000000000000 ) ) ;
#150 = PERSON_AND_ORGANIZATION_ROLE ( 'creator' ) ;
#151 = DIRECTION ( 'NONE',  ( 0.000000000000000000, 0.000000000000000000, 1.000000000000000000 ) ) ;
#152 = APPROVAL_STATUS ( 'not_yet_approved' ) ;
#153 = CALENDAR_DATE ( 2023, 12, 2 ) ;
#154 = APPROVAL ( #213, 'NEURÈENÝ' ) ;
#155 = ORIENTED_EDGE ( 'NONE', *, *, #243, .T. ) ;
#156 = ORIENTED_EDGE ( 'NONE', *, *, #205, .F. ) ;
#157 = AXIS2_PLACEMENT_3D ( 'NONE', #59, #115, #196 ) ;
#158 = EDGE_CURVE ( 'NONE', #179, #56, #23, .T. ) ;
#159 = CALENDAR_DATE ( 2023, 12, 2 ) ;
#160 = CC_DESIGN_PERSON_AND_ORGANIZATION_ASSIGNMENT ( #173, #150, ( #197 ) ) ;
#161 = EDGE_LOOP ( 'NONE', ( #111, #156 ) ) ;
#162 = APPLICATION_CONTEXT ( 'configuration controlled 3d designs of mechanical parts and assemblies' ) ;
#163 = DIRECTION ( 'NONE',  ( -1.000000000000000000, 0.000000000000000000, 0.000000000000000000 ) ) ;
#164 = APPLICATION_PROTOCOL_DEFINITION ( 'international standard', 'config_control_design', 1994, #162 ) ;
#165 = AXIS2_PLACEMENT_3D ( 'NONE', #44, #170, #255 ) ;
#166 = DIRECTION ( 'NONE',  ( -0.000000000000000000, -0.000000000000000000, -1.000000000000000000 ) ) ;
#167 = ADVANCED_FACE ( 'NONE', ( #172 ), #239, .T. ) ;
#168 = CARTESIAN_POINT ( 'NONE',  ( 0.000000000000000000, 0.000000000000000000, 7.000000000000000000 ) ) ;
#169 = CARTESIAN_POINT ( 'NONE',  ( 0.000000000000000000, 0.000000000000000000, 0.000000000000000000 ) ) ;
#170 = DIRECTION ( 'NONE',  ( 0.000000000000000000, 0.000000000000000000, 1.000000000000000000 ) ) ;
#171 = LOCAL_TIME ( 11, 45, 54.00000000000000000, #215 ) ;
#172 = FACE_OUTER_BOUND ( 'NONE', #246, .T. ) ;
#173 = PERSON_AND_ORGANIZATION ( #211, #247 ) ;
#174 = PERSON_AND_ORGANIZATION ( #211, #247 ) ;
#175 = EDGE_LOOP ( 'NONE', ( #225, #208, #48, #93 ) ) ;
#176 = ORIENTED_EDGE ( 'NONE', *, *, #146, .F. ) ;
#177 = APPROVAL_PERSON_ORGANIZATION ( #174, #202, #6 ) ;
#178 = LOCAL_TIME ( 11, 45, 54.00000000000000000, #97 ) ;
#179 = VERTEX_POINT ( 'NONE', #209 ) ;
#180 = DIRECTION ( 'NONE',  ( -0.000000000000000000, -0.000000000000000000, -1.000000000000000000 ) ) ;
#181 = CLOSED_SHELL ( 'NONE', ( #30, #185, #167, #217, #253, #40, #55 ) ) ;
#182 = DIRECTION ( 'NONE',  ( 0.000000000000000000, 0.000000000000000000, 1.000000000000000000 ) ) ;
#183 = PERSON_AND_ORGANIZATION_ROLE ( 'design_owner' ) ;
#184 = FACE_OUTER_BOUND ( 'NONE', #53, .T. ) ;
#185 = ADVANCED_FACE ( 'NONE', ( #21 ), #240, .T. ) ;
#186 = CARTESIAN_POINT ( 'NONE',  ( 0.000000000000000000, 0.000000000000000000, 0.000000000000000000 ) ) ;
#187 = CIRCLE ( 'NONE', #132, 7.000000000000000888 ) ;
#188 = DIRECTION ( 'NONE',  ( 0.000000000000000000, 0.000000000000000000, 1.000000000000000000 ) ) ;
#189 = DATE_AND_TIME ( #159, #32 ) ;
#190 = ADVANCED_BREP_SHAPE_REPRESENTATION ( 'd4cb', ( #191, #43 ), #206 ) ;
#191 = MANIFOLD_SOLID_BREP ( 'Pøidat vysunutím3', #181 ) ;
#192 = DATE_AND_TIME ( #153, #171 ) ;
#193 = CIRCLE ( 'NONE', #165, 11.00000000000000000 ) ;
#194 = CALENDAR_DATE ( 2023, 12, 2 ) ;
#195 = AXIS2_PLACEMENT_3D ( 'NONE', #218, #222, #9 ) ;
#196 = DIRECTION ( 'NONE',  ( 1.000000000000000000, 0.000000000000000000, 0.000000000000000000 ) ) ;
#197 = PRODUCT_DEFINITION_FORMATION_WITH_SPECIFIED_SOURCE ( 'LIBOVOLNÝ', '', #138, .NOT_KNOWN. ) ;
#198 = PERSON_AND_ORGANIZATION_ROLE ( 'design_supplier' ) ;
#199 = AXIS2_PLACEMENT_3D ( 'NONE', #79, #151, #63 ) ;
#200 = AXIS2_PLACEMENT_3D ( 'NONE', #28, #133, #46 ) ;
#201 = CYLINDRICAL_SURFACE ( 'NONE', #47, 7.000000000000000888 ) ;
#202 = APPROVAL ( #152, 'NEURÈENÝ' ) ;
#203 = AXIS2_PLACEMENT_3D ( 'NONE', #87, #127, #34 ) ;
#204 = ORIENTED_EDGE ( 'NONE', *, *, #108, .T. ) ;
#205 = EDGE_CURVE ( 'NONE', #88, #143, #121, .T. ) ;
#206 =( GEOMETRIC_REPRESENTATION_CONTEXT ( 3 ) GLOBAL_UNCERTAINTY_ASSIGNED_CONTEXT ( ( #117 ) ) GLOBAL_UNIT_ASSIGNED_CONTEXT ( ( #45, #224, #241 ) ) REPRESENTATION_CONTEXT ( 'NONE', 'WORKASPACE' ) );
#207 = CYLINDRICAL_SURFACE ( 'NONE', #203, 7.000000000000000888 ) ;
#208 = ORIENTED_EDGE ( 'NONE', *, *, #104, .T. ) ;
#209 = CARTESIAN_POINT ( 'NONE',  ( 11.00000000000000000, 1.347111479062088405E-15, 0.000000000000000000 ) ) ;
#210 = PERSON_AND_ORGANIZATION_ROLE ( 'creator' ) ;
#211 = PERSON ( 'NEURÈENÝ', 'NEURÈENÝ', 'NEURÈENÝ', ('NEURÈENÝ'), ('NEURÈENÝ'), ('NEURÈENÝ') ) ;
#212 = DIRECTION ( 'NONE',  ( 0.000000000000000000, 0.000000000000000000, 1.000000000000000000 ) ) ;
#213 = APPROVAL_STATUS ( 'not_yet_approved' ) ;
#214 = CARTESIAN_POINT ( 'NONE',  ( -11.00000000000000000, 0.000000000000000000, 7.000000000000000000 ) ) ;
#215 = COORDINATED_UNIVERSAL_TIME_OFFSET ( 1, 0, .AHEAD. ) ;
#216 = AXIS2_PLACEMENT_3D ( 'NONE', #168, #41, #114 ) ;
#217 = ADVANCED_FACE ( 'NONE', ( #24, #98 ), #5, .T. ) ;
#218 = CARTESIAN_POINT ( 'NONE',  ( 0.000000000000000000, 0.000000000000000000, 630.0000000000000000 ) ) ;
#219 = LOCAL_TIME ( 11, 45, 54.00000000000000000, #25 ) ;
#220 = CARTESIAN_POINT ( 'NONE',  ( -7.000000000000000888, 0.000000000000000000, 630.0000000000000000 ) ) ;
#221 = CIRCLE ( 'NONE', #62, 7.000000000000000888 ) ;
#222 = DIRECTION ( 'NONE',  ( 0.000000000000000000, 0.000000000000000000, 1.000000000000000000 ) ) ;
#223 = ORIENTED_EDGE ( 'NONE', *, *, #38, .T. ) ;
#224 =( NAMED_UNIT ( * ) PLANE_ANGLE_UNIT ( ) SI_UNIT ( $, .RADIAN. ) );
#225 = ORIENTED_EDGE ( 'NONE', *, *, #108, .F. ) ;
#226 = CC_DESIGN_DATE_AND_TIME_ASSIGNMENT ( #192, #242, ( #66 ) ) ;
#227 = DIRECTION ( 'NONE',  ( 0.000000000000000000, 0.000000000000000000, 1.000000000000000000 ) ) ;
#228 = LINE ( 'NONE', #89, #106 ) ;
#229 = ORIENTED_EDGE ( 'NONE', *, *, #123, .F. ) ;
#230 = APPROVAL ( #234, 'NEURÈENÝ' ) ;
#231 = LINE ( 'NONE', #15, #8 ) ;
#232 = APPROVAL_PERSON_ORGANIZATION ( #145, #230, #57 ) ;
#233 = FACE_OUTER_BOUND ( 'NONE', #248, .T. ) ;
#234 = APPROVAL_STATUS ( 'not_yet_approved' ) ;
#235 = LINE ( 'NONE', #128, #92 ) ;
#236 = APPROVAL_DATE_TIME ( #16, #230 ) ;
#237 = DIRECTION ( 'NONE',  ( -1.000000000000000000, 0.000000000000000000, 0.000000000000000000 ) ) ;
#238 = PRODUCT_RELATED_PRODUCT_CATEGORY ( 'detail', '', ( #138 ) ) ;
#239 = CYLINDRICAL_SURFACE ( 'NONE', #216, 11.00000000000000000 ) ;
#240 = CYLINDRICAL_SURFACE ( 'NONE', #1, 11.00000000000000000 ) ;
#241 =( NAMED_UNIT ( * ) SI_UNIT ( $, .STERADIAN. ) SOLID_ANGLE_UNIT ( ) );
#242 = DATE_TIME_ROLE ( 'classification_date' ) ;
#243 = EDGE_CURVE ( 'NONE', #110, #250, #17, .T. ) ;
#244 = ORIENTED_EDGE ( 'NONE', *, *, #243, .F. ) ;
#245 = APPLICATION_PROTOCOL_DEFINITION ( 'international standard', 'config_control_design', 1994, #139 ) ;
#246 = EDGE_LOOP ( 'NONE', ( #12, #26, #81, #68 ) ) ;
#247 = ORGANIZATION ( 'NEURÈENÝ', 'NEURÈENÝ', '' ) ;
#248 = EDGE_LOOP ( 'NONE', ( #176, #36, #101, #71 ) ) ;
#249 = CARTESIAN_POINT ( 'NONE',  ( 0.000000000000000000, 0.000000000000000000, 630.0000000000000000 ) ) ;
#250 = VERTEX_POINT ( 'NONE', #220 ) ;
#251 = VERTEX_POINT ( 'NONE', #102 ) ;
#252 = CC_DESIGN_APPROVAL ( #230, ( #120 ) ) ;
#253 = ADVANCED_FACE ( 'NONE', ( #83 ), #84, .F. ) ;
#254 = PERSON_AND_ORGANIZATION_ROLE ( 'classification_officer' ) ;
#255 = DIRECTION ( 'NONE',  ( 1.000000000000000000, 0.000000000000000000, 0.000000000000000000 ) ) ;
ENDSEC;
END-ISO-10303-21;
