ISO-10303-21;
HEADER;
FILE_DESCRIPTION (( 'STEP AP203' ),
    '1' );
FILE_NAME ('2dd8.STEP',
    '2023-02-12T12:59:28',
    ( '' ),
    ( '' ),
    'SwSTEP 2.0',
    'SolidWorks 2019',
    '' );
FILE_SCHEMA (( 'CONFIG_CONTROL_DESIGN' ));
ENDSEC;

DATA;
#1 =( GEOMETRIC_REPRESENTATION_CONTEXT ( 3 ) GLOBAL_UNCERTAINTY_ASSIGNED_CONTEXT ( ( #83 ) ) GLOBAL_UNIT_ASSIGNED_CONTEXT ( ( #79, #119, #64 ) ) REPRESENTATION_CONTEXT ( 'NONE', 'WORKASPACE' ) );
#2 = CC_DESIGN_DATE_AND_TIME_ASSIGNMENT ( #40, #195, ( #202 ) ) ;
#3 = APPROVAL_DATE_TIME ( #234, #47 ) ;
#4 = CALENDAR_DATE ( 2023, 12, 2 ) ;
#5 = CALENDAR_DATE ( 2023, 12, 2 ) ;
#6 = APPLICATION_PROTOCOL_DEFINITION ( 'international standard', 'config_control_design', 1994, #9 ) ;
#7 = VERTEX_POINT ( 'NONE', #30 ) ;
#8 = ORIENTED_EDGE ( 'NONE', *, *, #88, .F. ) ;
#9 = APPLICATION_CONTEXT ( 'configuration controlled 3d designs of mechanical parts and assemblies' ) ;
#10 = AXIS2_PLACEMENT_3D ( 'NONE', #250, #252, #55 ) ;
#11 = FACE_OUTER_BOUND ( 'NONE', #84, .T. ) ;
#12 = DIRECTION ( 'NONE',  ( -0.000000000000000000, -0.000000000000000000, -1.000000000000000000 ) ) ;
#13 = CC_DESIGN_APPROVAL ( #96, ( #202 ) ) ;
#14 = EDGE_LOOP ( 'NONE', ( #221, #128, #200, #85 ) ) ;
#15 = CARTESIAN_POINT ( 'NONE',  ( 0.000000000000000000, 0.000000000000000000, 125.0000000000000000 ) ) ;
#16 = CYLINDRICAL_SURFACE ( 'NONE', #253, 1.250000000000000000 ) ;
#17 = CARTESIAN_POINT ( 'NONE',  ( 0.000000000000000000, 0.000000000000000000, 125.0000000000000000 ) ) ;
#18 = APPROVAL ( #138, 'NEURÈENÝ' ) ;
#19 = DIRECTION ( 'NONE',  ( -0.000000000000000000, -0.000000000000000000, -1.000000000000000000 ) ) ;
#20 = PERSON_AND_ORGANIZATION_ROLE ( 'design_owner' ) ;
#21 = ORIENTED_EDGE ( 'NONE', *, *, #137, .T. ) ;
#22 = COORDINATED_UNIVERSAL_TIME_OFFSET ( 1, 0, .AHEAD. ) ;
#23 = ADVANCED_FACE ( 'NONE', ( #75 ), #32, .T. ) ;
#24 = PERSON_AND_ORGANIZATION_ROLE ( 'classification_officer' ) ;
#25 = PRODUCT_RELATED_PRODUCT_CATEGORY ( 'detail', '', ( #44 ) ) ;
#26 = AXIS2_PLACEMENT_3D ( 'NONE', #162, #58, #231 ) ;
#27 = AXIS2_PLACEMENT_3D ( 'NONE', #15, #170, #229 ) ;
#28 = ORIENTED_EDGE ( 'NONE', *, *, #198, .F. ) ;
#29 = DIRECTION ( 'NONE',  ( -1.000000000000000000, 0.000000000000000000, 0.000000000000000000 ) ) ;
#30 = CARTESIAN_POINT ( 'NONE',  ( -1.250000000000000000, 0.000000000000000000, 0.000000000000000000 ) ) ;
#31 = ADVANCED_FACE ( 'NONE', ( #115, #11 ), #226, .T. ) ;
#32 = CYLINDRICAL_SURFACE ( 'NONE', #66, 1.250000000000000000 ) ;
#33 = AXIS2_PLACEMENT_3D ( 'NONE', #210, #35, #255 ) ;
#34 = LINE ( 'NONE', #62, #194 ) ;
#35 = DIRECTION ( 'NONE',  ( 0.000000000000000000, 0.000000000000000000, 1.000000000000000000 ) ) ;
#36 = CARTESIAN_POINT ( 'NONE',  ( 1.250000000000000000, 1.530808498934191571E-16, 1.199999999999999956 ) ) ;
#37 = PLANE ( 'NONE',  #241 ) ;
#38 = LOCAL_TIME ( 13, 59, 28.00000000000000000, #46 ) ;
#39 = ADVANCED_FACE ( 'NONE', ( #92 ), #16, .T. ) ;
#40 = DATE_AND_TIME ( #5, #178 ) ;
#41 = VERTEX_POINT ( 'NONE', #254 ) ;
#42 = PERSON_AND_ORGANIZATION ( #146, #247 ) ;
#43 = LOCAL_TIME ( 13, 59, 28.00000000000000000, #238 ) ;
#44 = PRODUCT ( '2dd8', '2dd8', '', ( #124 ) ) ;
#45 = CIRCLE ( 'NONE', #33, 0.5999999999999999778 ) ;
#46 = COORDINATED_UNIVERSAL_TIME_OFFSET ( 1, 0, .AHEAD. ) ;
#47 = APPROVAL ( #65, 'NEURÈENÝ' ) ;
#48 = PERSON_AND_ORGANIZATION ( #146, #247 ) ;
#49 = EDGE_LOOP ( 'NONE', ( #52, #148 ) ) ;
#50 = CC_DESIGN_DATE_AND_TIME_ASSIGNMENT ( #237, #81, ( #112 ) ) ;
#51 = ORIENTED_EDGE ( 'NONE', *, *, #59, .F. ) ;
#52 = ORIENTED_EDGE ( 'NONE', *, *, #59, .T. ) ;
#53 = EDGE_LOOP ( 'NONE', ( #8, #185 ) ) ;
#54 = LINE ( 'NONE', #203, #174 ) ;
#55 = DIRECTION ( 'NONE',  ( 1.000000000000000000, 0.000000000000000000, 0.000000000000000000 ) ) ;
#56 = DIRECTION ( 'NONE',  ( -1.000000000000000000, 0.000000000000000000, 0.000000000000000000 ) ) ;
#57 = LINE ( 'NONE', #111, #134 ) ;
#58 = DIRECTION ( 'NONE',  ( 0.000000000000000000, 0.000000000000000000, 1.000000000000000000 ) ) ;
#59 = EDGE_CURVE ( 'NONE', #87, #244, #123, .T. ) ;
#60 = CIRCLE ( 'NONE', #156, 0.5999999999999999778 ) ;
#61 = DIRECTION ( 'NONE',  ( 1.000000000000000000, 0.000000000000000000, 0.000000000000000000 ) ) ;
#62 = CARTESIAN_POINT ( 'NONE',  ( 1.250000000000000000, 1.530808498934191571E-16, 1.199999999999999956 ) ) ;
#63 = PERSON_AND_ORGANIZATION_ROLE ( 'creator' ) ;
#64 =( NAMED_UNIT ( * ) SI_UNIT ( $, .STERADIAN. ) SOLID_ANGLE_UNIT ( ) );
#65 = APPROVAL_STATUS ( 'not_yet_approved' ) ;
#66 = AXIS2_PLACEMENT_3D ( 'NONE', #95, #173, #56 ) ;
#67 = APPROVAL_DATE_TIME ( #144, #96 ) ;
#68 = APPROVAL_DATE_TIME ( #139, #18 ) ;
#69 = VERTEX_POINT ( 'NONE', #184 ) ;
#70 = APPROVAL_PERSON_ORGANIZATION ( #175, #96, #199 ) ;
#71 = EDGE_CURVE ( 'NONE', #214, #7, #141, .T. ) ;
#72 = VERTEX_POINT ( 'NONE', #154 ) ;
#73 = CARTESIAN_POINT ( 'NONE',  ( 0.000000000000000000, 0.000000000000000000, 0.000000000000000000 ) ) ;
#74 = DIRECTION ( 'NONE',  ( 0.000000000000000000, 0.000000000000000000, 1.000000000000000000 ) ) ;
#75 = FACE_OUTER_BOUND ( 'NONE', #201, .T. ) ;
#76 = CIRCLE ( 'NONE', #94, 1.250000000000000000 ) ;
#77 = LINE ( 'NONE', #118, #102 ) ;
#78 = CARTESIAN_POINT ( 'NONE',  ( 0.5999999999999999778, 7.347880794884117764E-17, 125.0000000000000000 ) ) ;
#79 =( LENGTH_UNIT ( ) NAMED_UNIT ( * ) SI_UNIT ( .MILLI., .METRE. ) );
#80 = COORDINATED_UNIVERSAL_TIME_OFFSET ( 1, 0, .AHEAD. ) ;
#81 = DATE_TIME_ROLE ( 'creation_date' ) ;
#82 = EDGE_CURVE ( 'NONE', #41, #104, #76, .T. ) ;
#83 = UNCERTAINTY_MEASURE_WITH_UNIT (LENGTH_MEASURE( 1.000000000000000082E-05 ), #79, 'distance_accuracy_value', 'NONE');
#84 = EDGE_LOOP ( 'NONE', ( #127, #149 ) ) ;
#85 = ORIENTED_EDGE ( 'NONE', *, *, #248, .F. ) ;
#86 = CC_DESIGN_APPROVAL ( #18, ( #192 ) ) ;
#87 = VERTEX_POINT ( 'NONE', #212 ) ;
#88 = EDGE_CURVE ( 'NONE', #7, #214, #217, .T. ) ;
#89 = DIRECTION ( 'NONE',  ( 1.000000000000000000, 0.000000000000000000, 0.000000000000000000 ) ) ;
#90 = ADVANCED_FACE ( 'NONE', ( #211 ), #37, .F. ) ;
#91 = DIRECTION ( 'NONE',  ( 1.000000000000000000, 0.000000000000000000, 0.000000000000000000 ) ) ;
#92 = FACE_OUTER_BOUND ( 'NONE', #239, .T. ) ;
#93 = CYLINDRICAL_SURFACE ( 'NONE', #27, 0.5999999999999999778 ) ;
#94 = AXIS2_PLACEMENT_3D ( 'NONE', #151, #169, #89 ) ;
#95 = CARTESIAN_POINT ( 'NONE',  ( 0.000000000000000000, 0.000000000000000000, 1.199999999999999956 ) ) ;
#96 = APPROVAL ( #191, 'NEURÈENÝ' ) ;
#97 = CIRCLE ( 'NONE', #240, 1.250000000000000000 ) ;
#98 = CARTESIAN_POINT ( 'NONE',  ( 0.000000000000000000, 0.000000000000000000, 0.000000000000000000 ) ) ;
#99 = APPLICATION_PROTOCOL_DEFINITION ( 'international standard', 'config_control_design', 1994, #207 ) ;
#100 = APPROVAL_ROLE ( '' ) ;
#101 = DESIGN_CONTEXT ( 'detailed design', #207, 'design' ) ;
#102 = VECTOR ( 'NONE', #19, 1000.000000000000000 ) ;
#103 = EDGE_CURVE ( 'NONE', #244, #72, #57, .T. ) ;
#104 = VERTEX_POINT ( 'NONE', #36 ) ;
#105 = ORIENTED_EDGE ( 'NONE', *, *, #243, .T. ) ;
#106 = CC_DESIGN_APPROVAL ( #47, ( #112 ) ) ;
#107 = EDGE_CURVE ( 'NONE', #72, #69, #108, .T. ) ;
#108 = CIRCLE ( 'NONE', #164, 0.5999999999999999778 ) ;
#109 = DIRECTION ( 'NONE',  ( 1.000000000000000000, 0.000000000000000000, 0.000000000000000000 ) ) ;
#110 = DIRECTION ( 'NONE',  ( -0.000000000000000000, -0.000000000000000000, -1.000000000000000000 ) ) ;
#111 = CARTESIAN_POINT ( 'NONE',  ( 0.5999999999999999778, 7.347880794884117764E-17, 125.0000000000000000 ) ) ;
#112 = PRODUCT_DEFINITION ( 'NEZNÁMÝ', '', #192, #101 ) ;
#113 = ORIENTED_EDGE ( 'NONE', *, *, #82, .F. ) ;
#114 = APPROVAL_PERSON_ORGANIZATION ( #48, #47, #160 ) ;
#115 = FACE_BOUND ( 'NONE', #242, .T. ) ;
#116 = DIRECTION ( 'NONE',  ( -0.000000000000000000, -0.000000000000000000, -1.000000000000000000 ) ) ;
#117 = DIRECTION ( 'NONE',  ( 0.000000000000000000, 0.000000000000000000, 1.000000000000000000 ) ) ;
#118 = CARTESIAN_POINT ( 'NONE',  ( -0.5999999999999999778, 0.000000000000000000, 125.0000000000000000 ) ) ;
#119 =( NAMED_UNIT ( * ) PLANE_ANGLE_UNIT ( ) SI_UNIT ( $, .RADIAN. ) );
#120 = PERSON_AND_ORGANIZATION ( #146, #247 ) ;
#121 = ORIENTED_EDGE ( 'NONE', *, *, #88, .T. ) ;
#122 = PERSON_AND_ORGANIZATION_ROLE ( 'design_supplier' ) ;
#123 = CIRCLE ( 'NONE', #230, 0.5999999999999999778 ) ;
#124 = MECHANICAL_CONTEXT ( 'NONE', #9, 'mechanical' ) ;
#125 = CC_DESIGN_SECURITY_CLASSIFICATION ( #202, ( #192 ) ) ;
#126 = ORIENTED_EDGE ( 'NONE', *, *, #206, .F. ) ;
#127 = ORIENTED_EDGE ( 'NONE', *, *, #82, .T. ) ;
#128 = ORIENTED_EDGE ( 'NONE', *, *, #103, .T. ) ;
#129 = DIRECTION ( 'NONE',  ( 1.000000000000000000, 0.000000000000000000, -0.000000000000000000 ) ) ;
#130 = CC_DESIGN_PERSON_AND_ORGANIZATION_ASSIGNMENT ( #218, #20, ( #44 ) ) ;
#131 = DIRECTION ( 'NONE',  ( -0.000000000000000000, -0.000000000000000000, -1.000000000000000000 ) ) ;
#132 = DIRECTION ( 'NONE',  ( -0.000000000000000000, -0.000000000000000000, -1.000000000000000000 ) ) ;
#133 = LOCAL_TIME ( 13, 59, 28.00000000000000000, #80 ) ;
#134 = VECTOR ( 'NONE', #132, 1000.000000000000000 ) ;
#135 = DIRECTION ( 'NONE',  ( 1.000000000000000000, 0.000000000000000000, -0.000000000000000000 ) ) ;
#136 = CARTESIAN_POINT ( 'NONE',  ( 0.000000000000000000, 0.000000000000000000, 0.000000000000000000 ) ) ;
#137 = EDGE_CURVE ( 'NONE', #104, #214, #34, .T. ) ;
#138 = APPROVAL_STATUS ( 'not_yet_approved' ) ;
#139 = DATE_AND_TIME ( #197, #236 ) ;
#140 = PERSON_AND_ORGANIZATION ( #146, #247 ) ;
#141 = CIRCLE ( 'NONE', #182, 1.250000000000000000 ) ;
#142 = SHAPE_DEFINITION_REPRESENTATION ( #216, #187 ) ;
#143 = CC_DESIGN_PERSON_AND_ORGANIZATION_ASSIGNMENT ( #235, #63, ( #112 ) ) ;
#144 = DATE_AND_TIME ( #4, #133 ) ;
#145 = APPROVAL_PERSON_ORGANIZATION ( #159, #18, #100 ) ;
#146 = PERSON ( 'NEURÈENÝ', 'NEURÈENÝ', 'NEURÈENÝ', ('NEURÈENÝ'), ('NEURÈENÝ'), ('NEURÈENÝ') ) ;
#147 = CARTESIAN_POINT ( 'NONE',  ( 0.000000000000000000, 0.000000000000000000, 1.199999999999999956 ) ) ;
#148 = ORIENTED_EDGE ( 'NONE', *, *, #183, .T. ) ;
#149 = ORIENTED_EDGE ( 'NONE', *, *, #198, .T. ) ;
#150 = CLOSED_SHELL ( 'NONE', ( #190, #23, #39, #31, #90, #176, #233 ) ) ;
#151 = CARTESIAN_POINT ( 'NONE',  ( 0.000000000000000000, 0.000000000000000000, 1.199999999999999956 ) ) ;
#152 = FACE_OUTER_BOUND ( 'NONE', #49, .T. ) ;
#153 = DIRECTION ( 'NONE',  ( 1.000000000000000000, 0.000000000000000000, 0.000000000000000000 ) ) ;
#154 = CARTESIAN_POINT ( 'NONE',  ( 0.5999999999999999778, 7.347880794884117764E-17, 1.199999999999999956 ) ) ;
#155 = DIRECTION ( 'NONE',  ( 1.000000000000000000, 0.000000000000000000, 0.000000000000000000 ) ) ;
#156 = AXIS2_PLACEMENT_3D ( 'NONE', #205, #117, #61 ) ;
#157 = DIRECTION ( 'NONE',  ( -1.000000000000000000, 0.000000000000000000, 0.000000000000000000 ) ) ;
#158 = MANIFOLD_SOLID_BREP ( 'Pøidat vysunutím3', #150 ) ;
#159 = PERSON_AND_ORGANIZATION ( #146, #247 ) ;
#160 = APPROVAL_ROLE ( '' ) ;
#161 = CALENDAR_DATE ( 2023, 12, 2 ) ;
#162 = CARTESIAN_POINT ( 'NONE',  ( 0.000000000000000000, 0.000000000000000000, 125.0000000000000000 ) ) ;
#163 = ORIENTED_EDGE ( 'NONE', *, *, #248, .T. ) ;
#164 = AXIS2_PLACEMENT_3D ( 'NONE', #209, #204, #153 ) ;
#165 = EDGE_LOOP ( 'NONE', ( #180, #51, #163, #105 ) ) ;
#166 = ORIENTED_EDGE ( 'NONE', *, *, #107, .F. ) ;
#167 = ORIENTED_EDGE ( 'NONE', *, *, #243, .F. ) ;
#168 = DIRECTION ( 'NONE',  ( 0.000000000000000000, 0.000000000000000000, 1.000000000000000000 ) ) ;
#169 = DIRECTION ( 'NONE',  ( 0.000000000000000000, 0.000000000000000000, 1.000000000000000000 ) ) ;
#170 = DIRECTION ( 'NONE',  ( -0.000000000000000000, -0.000000000000000000, -1.000000000000000000 ) ) ;
#171 = CC_DESIGN_PERSON_AND_ORGANIZATION_ASSIGNMENT ( #120, #24, ( #202 ) ) ;
#172 = DIRECTION ( 'NONE',  ( 0.000000000000000000, 0.000000000000000000, 1.000000000000000000 ) ) ;
#173 = DIRECTION ( 'NONE',  ( -0.000000000000000000, -0.000000000000000000, -1.000000000000000000 ) ) ;
#174 = VECTOR ( 'NONE', #110, 1000.000000000000000 ) ;
#175 = PERSON_AND_ORGANIZATION ( #146, #247 ) ;
#176 = ADVANCED_FACE ( 'NONE', ( #186 ), #93, .T. ) ;
#177 = SECURITY_CLASSIFICATION_LEVEL ( 'unclassified' ) ;
#178 = LOCAL_TIME ( 13, 59, 28.00000000000000000, #22 ) ;
#179 = CC_DESIGN_PERSON_AND_ORGANIZATION_ASSIGNMENT ( #42, #122, ( #192 ) ) ;
#180 = ORIENTED_EDGE ( 'NONE', *, *, #103, .F. ) ;
#181 = AXIS2_PLACEMENT_3D ( 'NONE', #98, #219, #215 ) ;
#182 = AXIS2_PLACEMENT_3D ( 'NONE', #136, #249, #91 ) ;
#183 = EDGE_CURVE ( 'NONE', #244, #87, #60, .T. ) ;
#184 = CARTESIAN_POINT ( 'NONE',  ( -0.5999999999999999778, 0.000000000000000000, 1.199999999999999956 ) ) ;
#185 = ORIENTED_EDGE ( 'NONE', *, *, #71, .F. ) ;
#186 = FACE_OUTER_BOUND ( 'NONE', #165, .T. ) ;
#187 = ADVANCED_BREP_SHAPE_REPRESENTATION ( '2dd8', ( #158, #181 ), #1 ) ;
#188 = FACE_OUTER_BOUND ( 'NONE', #14, .T. ) ;
#189 = CYLINDRICAL_SURFACE ( 'NONE', #208, 0.5999999999999999778 ) ;
#190 = ADVANCED_FACE ( 'NONE', ( #188 ), #189, .T. ) ;
#191 = APPROVAL_STATUS ( 'not_yet_approved' ) ;
#192 = PRODUCT_DEFINITION_FORMATION_WITH_SPECIFIED_SOURCE ( 'LIBOVOLNÝ', '', #44, .NOT_KNOWN. ) ;
#193 = ORIENTED_EDGE ( 'NONE', *, *, #206, .T. ) ;
#194 = VECTOR ( 'NONE', #131, 1000.000000000000000 ) ;
#195 = DATE_TIME_ROLE ( 'classification_date' ) ;
#196 = CALENDAR_DATE ( 2023, 12, 2 ) ;
#197 = CALENDAR_DATE ( 2023, 12, 2 ) ;
#198 = EDGE_CURVE ( 'NONE', #104, #41, #97, .T. ) ;
#199 = APPROVAL_ROLE ( '' ) ;
#200 = ORIENTED_EDGE ( 'NONE', *, *, #107, .T. ) ;
#201 = EDGE_LOOP ( 'NONE', ( #28, #21, #222, #126 ) ) ;
#202 = SECURITY_CLASSIFICATION ( '', '', #177 ) ;
#203 = CARTESIAN_POINT ( 'NONE',  ( -1.250000000000000000, 0.000000000000000000, 1.199999999999999956 ) ) ;
#204 = DIRECTION ( 'NONE',  ( 0.000000000000000000, 0.000000000000000000, 1.000000000000000000 ) ) ;
#205 = CARTESIAN_POINT ( 'NONE',  ( 0.000000000000000000, 0.000000000000000000, 125.0000000000000000 ) ) ;
#206 = EDGE_CURVE ( 'NONE', #41, #7, #54, .T. ) ;
#207 = APPLICATION_CONTEXT ( 'configuration controlled 3d designs of mechanical parts and assemblies' ) ;
#208 = AXIS2_PLACEMENT_3D ( 'NONE', #17, #12, #29 ) ;
#209 = CARTESIAN_POINT ( 'NONE',  ( 0.000000000000000000, 0.000000000000000000, 1.199999999999999956 ) ) ;
#210 = CARTESIAN_POINT ( 'NONE',  ( 0.000000000000000000, 0.000000000000000000, 1.199999999999999956 ) ) ;
#211 = FACE_OUTER_BOUND ( 'NONE', #53, .T. ) ;
#212 = CARTESIAN_POINT ( 'NONE',  ( -0.5999999999999999778, 0.000000000000000000, 125.0000000000000000 ) ) ;
#213 = COORDINATED_UNIVERSAL_TIME_OFFSET ( 1, 0, .AHEAD. ) ;
#214 = VERTEX_POINT ( 'NONE', #246 ) ;
#215 = DIRECTION ( 'NONE',  ( 1.000000000000000000, 0.000000000000000000, 0.000000000000000000 ) ) ;
#216 = PRODUCT_DEFINITION_SHAPE ( 'NONE', 'NONE',  #112 ) ;
#217 = CIRCLE ( 'NONE', #10, 1.250000000000000000 ) ;
#218 = PERSON_AND_ORGANIZATION ( #146, #247 ) ;
#219 = DIRECTION ( 'NONE',  ( 0.000000000000000000, 0.000000000000000000, 1.000000000000000000 ) ) ;
#220 = PERSON_AND_ORGANIZATION_ROLE ( 'creator' ) ;
#221 = ORIENTED_EDGE ( 'NONE', *, *, #183, .F. ) ;
#222 = ORIENTED_EDGE ( 'NONE', *, *, #71, .T. ) ;
#223 = DIRECTION ( 'NONE',  ( 0.000000000000000000, 0.000000000000000000, 1.000000000000000000 ) ) ;
#224 = CARTESIAN_POINT ( 'NONE',  ( 0.000000000000000000, 0.000000000000000000, 1.199999999999999956 ) ) ;
#225 = PLANE ( 'NONE',  #26 ) ;
#226 = PLANE ( 'NONE',  #251 ) ;
#227 = CC_DESIGN_PERSON_AND_ORGANIZATION_ASSIGNMENT ( #140, #220, ( #192 ) ) ;
#228 = CARTESIAN_POINT ( 'NONE',  ( 0.000000000000000000, 0.000000000000000000, 125.0000000000000000 ) ) ;
#229 = DIRECTION ( 'NONE',  ( -1.000000000000000000, 0.000000000000000000, 0.000000000000000000 ) ) ;
#230 = AXIS2_PLACEMENT_3D ( 'NONE', #228, #172, #155 ) ;
#231 = DIRECTION ( 'NONE',  ( 1.000000000000000000, 0.000000000000000000, -0.000000000000000000 ) ) ;
#232 = CARTESIAN_POINT ( 'NONE',  ( 0.000000000000000000, 0.000000000000000000, 1.199999999999999956 ) ) ;
#233 = ADVANCED_FACE ( 'NONE', ( #152 ), #225, .T. ) ;
#234 = DATE_AND_TIME ( #196, #38 ) ;
#235 = PERSON_AND_ORGANIZATION ( #146, #247 ) ;
#236 = LOCAL_TIME ( 13, 59, 28.00000000000000000, #213 ) ;
#237 = DATE_AND_TIME ( #161, #43 ) ;
#238 = COORDINATED_UNIVERSAL_TIME_OFFSET ( 1, 0, .AHEAD. ) ;
#239 = EDGE_LOOP ( 'NONE', ( #245, #113, #193, #121 ) ) ;
#240 = AXIS2_PLACEMENT_3D ( 'NONE', #147, #223, #109 ) ;
#241 = AXIS2_PLACEMENT_3D ( 'NONE', #73, #74, #129 ) ;
#242 = EDGE_LOOP ( 'NONE', ( #167, #166 ) ) ;
#243 = EDGE_CURVE ( 'NONE', #69, #72, #45, .T. ) ;
#244 = VERTEX_POINT ( 'NONE', #78 ) ;
#245 = ORIENTED_EDGE ( 'NONE', *, *, #137, .F. ) ;
#246 = CARTESIAN_POINT ( 'NONE',  ( 1.250000000000000000, 1.530808498934191571E-16, 0.000000000000000000 ) ) ;
#247 = ORGANIZATION ( 'NEURÈENÝ', 'NEURÈENÝ', '' ) ;
#248 = EDGE_CURVE ( 'NONE', #87, #69, #77, .T. ) ;
#249 = DIRECTION ( 'NONE',  ( 0.000000000000000000, 0.000000000000000000, 1.000000000000000000 ) ) ;
#250 = CARTESIAN_POINT ( 'NONE',  ( 0.000000000000000000, 0.000000000000000000, 0.000000000000000000 ) ) ;
#251 = AXIS2_PLACEMENT_3D ( 'NONE', #232, #168, #135 ) ;
#252 = DIRECTION ( 'NONE',  ( 0.000000000000000000, 0.000000000000000000, 1.000000000000000000 ) ) ;
#253 = AXIS2_PLACEMENT_3D ( 'NONE', #224, #116, #157 ) ;
#254 = CARTESIAN_POINT ( 'NONE',  ( -1.250000000000000000, 0.000000000000000000, 1.199999999999999956 ) ) ;
#255 = DIRECTION ( 'NONE',  ( 1.000000000000000000, 0.000000000000000000, 0.000000000000000000 ) ) ;
ENDSEC;
END-ISO-10303-21;
