ISO-10303-21;
HEADER;
FILE_DESCRIPTION (( 'STEP AP203' ),
    '1' );
FILE_NAME ('b429.STEP',
    '2023-02-12T10:42:18',
    ( '' ),
    ( '' ),
    'SwSTEP 2.0',
    'SolidWorks 2019',
    '' );
FILE_SCHEMA (( 'CONFIG_CONTROL_DESIGN' ));
ENDSEC;

DATA;
#1 = CARTESIAN_POINT ( 'NONE',  ( -11.00000000000000000, 0.000000000000000000, 7.000000000000000000 ) ) ;
#2 = AXIS2_PLACEMENT_3D ( 'NONE', #103, #163, #166 ) ;
#3 = APPROVAL_PERSON_ORGANIZATION ( #83, #29, #128 ) ;
#4 = CC_DESIGN_APPROVAL ( #29, ( #74 ) ) ;
#5 = DESIGN_CONTEXT ( 'detailed design', #15, 'design' ) ;
#6 = FACE_OUTER_BOUND ( 'NONE', #157, .T. ) ;
#7 = EDGE_CURVE ( 'NONE', #112, #93, #172, .T. ) ;
#8 = CARTESIAN_POINT ( 'NONE',  ( 0.000000000000000000, 0.000000000000000000, 7.000000000000000000 ) ) ;
#9 = APPROVAL_DATE_TIME ( #240, #29 ) ;
#10 = DIRECTION ( 'NONE',  ( 1.000000000000000000, 0.000000000000000000, 0.000000000000000000 ) ) ;
#11 = AXIS2_PLACEMENT_3D ( 'NONE', #127, #222, #87 ) ;
#12 = ORGANIZATION ( 'NEURÈENÝ', 'NEURÈENÝ', '' ) ;
#13 = APPLICATION_PROTOCOL_DEFINITION ( 'international standard', 'config_control_design', 1994, #59 ) ;
#14 = EDGE_LOOP ( 'NONE', ( #173, #169, #85, #228 ) ) ;
#15 = APPLICATION_CONTEXT ( 'configuration controlled 3d designs of mechanical parts and assemblies' ) ;
#16 = VERTEX_POINT ( 'NONE', #193 ) ;
#17 = EDGE_CURVE ( 'NONE', #153, #33, #223, .T. ) ;
#18 = LOCAL_TIME ( 11, 42, 18.00000000000000000, #177 ) ;
#19 = ORIENTED_EDGE ( 'NONE', *, *, #220, .T. ) ;
#20 = ADVANCED_FACE ( 'NONE', ( #37 ), #230, .T. ) ;
#21 = CALENDAR_DATE ( 2023, 12, 2 ) ;
#22 = DIRECTION ( 'NONE',  ( 0.000000000000000000, 0.000000000000000000, 1.000000000000000000 ) ) ;
#23 = AXIS2_PLACEMENT_3D ( 'NONE', #238, #69, #219 ) ;
#24 = CARTESIAN_POINT ( 'NONE',  ( 0.000000000000000000, 0.000000000000000000, 7.000000000000000000 ) ) ;
#25 = PERSON_AND_ORGANIZATION ( #231, #12 ) ;
#26 = CARTESIAN_POINT ( 'NONE',  ( 11.00000000000000000, 1.347111479062088405E-15, 7.000000000000000000 ) ) ;
#27 = DIRECTION ( 'NONE',  ( 0.000000000000000000, 0.000000000000000000, 1.000000000000000000 ) ) ;
#28 = AXIS2_PLACEMENT_3D ( 'NONE', #149, #130, #209 ) ;
#29 = APPROVAL ( #184, 'NEURÈENÝ' ) ;
#30 = DIRECTION ( 'NONE',  ( 0.000000000000000000, 0.000000000000000000, 1.000000000000000000 ) ) ;
#31 = EDGE_LOOP ( 'NONE', ( #54, #151, #210, #131 ) ) ;
#32 = CALENDAR_DATE ( 2023, 12, 2 ) ;
#33 = VERTEX_POINT ( 'NONE', #215 ) ;
#34 = VECTOR ( 'NONE', #123, 1000.000000000000000 ) ;
#35 =( NAMED_UNIT ( * ) PLANE_ANGLE_UNIT ( ) SI_UNIT ( $, .RADIAN. ) );
#36 = CARTESIAN_POINT ( 'NONE',  ( 0.000000000000000000, 0.000000000000000000, 7.000000000000000000 ) ) ;
#37 = FACE_OUTER_BOUND ( 'NONE', #170, .T. ) ;
#38 = APPROVAL_ROLE ( '' ) ;
#39 = FACE_BOUND ( 'NONE', #76, .T. ) ;
#40 = AXIS2_PLACEMENT_3D ( 'NONE', #84, #237, #44 ) ;
#41 = APPROVAL_DATE_TIME ( #233, #98 ) ;
#42 = ADVANCED_FACE ( 'NONE', ( #39, #118 ), #96, .T. ) ;
#43 = PLANE ( 'NONE',  #207 ) ;
#44 = DIRECTION ( 'NONE',  ( 1.000000000000000000, 0.000000000000000000, 0.000000000000000000 ) ) ;
#45 = ORIENTED_EDGE ( 'NONE', *, *, #195, .T. ) ;
#46 = DATE_TIME_ROLE ( 'classification_date' ) ;
#47 = LINE ( 'NONE', #205, #214 ) ;
#48 = PRODUCT_RELATED_PRODUCT_CATEGORY ( 'detail', '', ( #135 ) ) ;
#49 = UNCERTAINTY_MEASURE_WITH_UNIT (LENGTH_MEASURE( 1.000000000000000082E-05 ), #100, 'distance_accuracy_value', 'NONE');
#50 = CARTESIAN_POINT ( 'NONE',  ( -8.000000000000000000, 0.000000000000000000, 1200.000000000000000 ) ) ;
#51 = VECTOR ( 'NONE', #160, 1000.000000000000000 ) ;
#52 = EDGE_LOOP ( 'NONE', ( #89, #155 ) ) ;
#53 = DIRECTION ( 'NONE',  ( 1.000000000000000000, 0.000000000000000000, 0.000000000000000000 ) ) ;
#54 = ORIENTED_EDGE ( 'NONE', *, *, #182, .F. ) ;
#55 = PERSON_AND_ORGANIZATION ( #231, #12 ) ;
#56 = EDGE_LOOP ( 'NONE', ( #136, #227 ) ) ;
#57 = DATE_TIME_ROLE ( 'creation_date' ) ;
#58 = DIRECTION ( 'NONE',  ( 1.000000000000000000, 0.000000000000000000, 0.000000000000000000 ) ) ;
#59 = APPLICATION_CONTEXT ( 'configuration controlled 3d designs of mechanical parts and assemblies' ) ;
#60 = VECTOR ( 'NONE', #124, 1000.000000000000000 ) ;
#61 = CIRCLE ( 'NONE', #97, 8.000000000000000000 ) ;
#62 = ADVANCED_BREP_SHAPE_REPRESENTATION ( 'b429', ( #67, #165 ), #134 ) ;
#63 = AXIS2_PLACEMENT_3D ( 'NONE', #36, #253, #114 ) ;
#64 = APPROVAL_STATUS ( 'not_yet_approved' ) ;
#65 = CARTESIAN_POINT ( 'NONE',  ( -11.00000000000000000, 0.000000000000000000, 7.000000000000000000 ) ) ;
#66 = CC_DESIGN_APPROVAL ( #252, ( #145 ) ) ;
#67 = MANIFOLD_SOLID_BREP ( 'Pøidat vysunutím3', #99 ) ;
#68 = EDGE_CURVE ( 'NONE', #16, #192, #201, .T. ) ;
#69 = DIRECTION ( 'NONE',  ( -0.000000000000000000, -0.000000000000000000, -1.000000000000000000 ) ) ;
#70 = VERTEX_POINT ( 'NONE', #65 ) ;
#71 = DIRECTION ( 'NONE',  ( 1.000000000000000000, 0.000000000000000000, 0.000000000000000000 ) ) ;
#72 = LINE ( 'NONE', #148, #51 ) ;
#73 = FACE_OUTER_BOUND ( 'NONE', #108, .T. ) ;
#74 = SECURITY_CLASSIFICATION ( '', '', #204 ) ;
#75 = ORIENTED_EDGE ( 'NONE', *, *, #190, .F. ) ;
#76 = EDGE_LOOP ( 'NONE', ( #225, #75 ) ) ;
#77 = EDGE_CURVE ( 'NONE', #70, #16, #178, .T. ) ;
#78 = CALENDAR_DATE ( 2023, 12, 2 ) ;
#79 = EDGE_CURVE ( 'NONE', #192, #16, #243, .T. ) ;
#80 = LOCAL_TIME ( 11, 42, 18.00000000000000000, #218 ) ;
#81 = CARTESIAN_POINT ( 'NONE',  ( 0.000000000000000000, 0.000000000000000000, 7.000000000000000000 ) ) ;
#82 = CC_DESIGN_APPROVAL ( #98, ( #235 ) ) ;
#83 = PERSON_AND_ORGANIZATION ( #231, #12 ) ;
#84 = CARTESIAN_POINT ( 'NONE',  ( 0.000000000000000000, 0.000000000000000000, 7.000000000000000000 ) ) ;
#85 = ORIENTED_EDGE ( 'NONE', *, *, #79, .T. ) ;
#86 = ADVANCED_FACE ( 'NONE', ( #144 ), #161, .T. ) ;
#87 = DIRECTION ( 'NONE',  ( -1.000000000000000000, 0.000000000000000000, 0.000000000000000000 ) ) ;
#88 = DIRECTION ( 'NONE',  ( -0.000000000000000000, -0.000000000000000000, -1.000000000000000000 ) ) ;
#89 = ORIENTED_EDGE ( 'NONE', *, *, #68, .F. ) ;
#90 = CIRCLE ( 'NONE', #254, 11.00000000000000000 ) ;
#91 = CC_DESIGN_PERSON_AND_ORGANIZATION_ASSIGNMENT ( #115, #187, ( #135 ) ) ;
#92 = APPROVAL_STATUS ( 'not_yet_approved' ) ;
#93 = VERTEX_POINT ( 'NONE', #245 ) ;
#94 = CARTESIAN_POINT ( 'NONE',  ( 0.000000000000000000, 0.000000000000000000, 1200.000000000000000 ) ) ;
#95 = LOCAL_TIME ( 11, 42, 18.00000000000000000, #191 ) ;
#96 = PLANE ( 'NONE',  #138 ) ;
#97 = AXIS2_PLACEMENT_3D ( 'NONE', #242, #22, #202 ) ;
#98 = APPROVAL ( #64, 'NEURÈENÝ' ) ;
#99 = CLOSED_SHELL ( 'NONE', ( #141, #236, #86, #42, #109, #241, #20 ) ) ;
#100 =( LENGTH_UNIT ( ) NAMED_UNIT ( * ) SI_UNIT ( .MILLI., .METRE. ) );
#101 = AXIS2_PLACEMENT_3D ( 'NONE', #81, #181, #10 ) ;
#102 = PRODUCT_DEFINITION_SHAPE ( 'NONE', 'NONE',  #145 ) ;
#103 = CARTESIAN_POINT ( 'NONE',  ( 0.000000000000000000, 0.000000000000000000, 0.000000000000000000 ) ) ;
#104 = PERSON_AND_ORGANIZATION_ROLE ( 'design_supplier' ) ;
#105 = CARTESIAN_POINT ( 'NONE',  ( -8.000000000000000000, 0.000000000000000000, 7.000000000000000000 ) ) ;
#106 = DATE_AND_TIME ( #21, #120 ) ;
#107 = CARTESIAN_POINT ( 'NONE',  ( 0.000000000000000000, 0.000000000000000000, 0.000000000000000000 ) ) ;
#108 = EDGE_LOOP ( 'NONE', ( #196, #250, #189, #213 ) ) ;
#109 = ADVANCED_FACE ( 'NONE', ( #221 ), #43, .F. ) ;
#110 = COORDINATED_UNIVERSAL_TIME_OFFSET ( 1, 0, .AHEAD. ) ;
#111 = AXIS2_PLACEMENT_3D ( 'NONE', #216, #159, #199 ) ;
#112 = VERTEX_POINT ( 'NONE', #105 ) ;
#113 = MECHANICAL_CONTEXT ( 'NONE', #59, 'mechanical' ) ;
#114 = DIRECTION ( 'NONE',  ( 1.000000000000000000, 0.000000000000000000, 0.000000000000000000 ) ) ;
#115 = PERSON_AND_ORGANIZATION ( #231, #12 ) ;
#116 = CARTESIAN_POINT ( 'NONE',  ( 0.000000000000000000, 0.000000000000000000, 1200.000000000000000 ) ) ;
#117 = PERSON_AND_ORGANIZATION_ROLE ( 'creator' ) ;
#118 = FACE_OUTER_BOUND ( 'NONE', #56, .T. ) ;
#119 = AXIS2_PLACEMENT_3D ( 'NONE', #116, #158, #137 ) ;
#120 = LOCAL_TIME ( 11, 42, 18.00000000000000000, #206 ) ;
#121 = DIRECTION ( 'NONE',  ( 0.000000000000000000, 0.000000000000000000, 1.000000000000000000 ) ) ;
#122 = CC_DESIGN_PERSON_AND_ORGANIZATION_ASSIGNMENT ( #234, #117, ( #235 ) ) ;
#123 = DIRECTION ( 'NONE',  ( -0.000000000000000000, -0.000000000000000000, -1.000000000000000000 ) ) ;
#124 = DIRECTION ( 'NONE',  ( -0.000000000000000000, -0.000000000000000000, -1.000000000000000000 ) ) ;
#125 = CALENDAR_DATE ( 2023, 12, 2 ) ;
#126 = CYLINDRICAL_SURFACE ( 'NONE', #208, 11.00000000000000000 ) ;
#127 = CARTESIAN_POINT ( 'NONE',  ( 0.000000000000000000, 0.000000000000000000, 1200.000000000000000 ) ) ;
#128 = APPROVAL_ROLE ( '' ) ;
#129 = DIRECTION ( 'NONE',  ( -0.000000000000000000, -0.000000000000000000, -1.000000000000000000 ) ) ;
#130 = DIRECTION ( 'NONE',  ( -0.000000000000000000, -0.000000000000000000, -1.000000000000000000 ) ) ;
#131 = ORIENTED_EDGE ( 'NONE', *, *, #68, .T. ) ;
#132 = DATE_AND_TIME ( #226, #95 ) ;
#133 = ORIENTED_EDGE ( 'NONE', *, *, #17, .T. ) ;
#134 =( GEOMETRIC_REPRESENTATION_CONTEXT ( 3 ) GLOBAL_UNCERTAINTY_ASSIGNED_CONTEXT ( ( #49 ) ) GLOBAL_UNIT_ASSIGNED_CONTEXT ( ( #100, #35, #152 ) ) REPRESENTATION_CONTEXT ( 'NONE', 'WORKASPACE' ) );
#135 = PRODUCT ( 'b429', 'b429', '', ( #113 ) ) ;
#136 = ORIENTED_EDGE ( 'NONE', *, *, #150, .T. ) ;
#137 = DIRECTION ( 'NONE',  ( 1.000000000000000000, 0.000000000000000000, -0.000000000000000000 ) ) ;
#138 = AXIS2_PLACEMENT_3D ( 'NONE', #176, #121, #140 ) ;
#139 = CC_DESIGN_DATE_AND_TIME_ASSIGNMENT ( #106, #46, ( #74 ) ) ;
#140 = DIRECTION ( 'NONE',  ( 1.000000000000000000, 0.000000000000000000, -0.000000000000000000 ) ) ;
#141 = ADVANCED_FACE ( 'NONE', ( #6 ), #217, .T. ) ;
#142 = CIRCLE ( 'NONE', #101, 8.000000000000000000 ) ;
#143 = PERSON_AND_ORGANIZATION_ROLE ( 'classification_officer' ) ;
#144 = FACE_OUTER_BOUND ( 'NONE', #31, .T. ) ;
#145 = PRODUCT_DEFINITION ( 'NEZNÁMÝ', '', #235, #5 ) ;
#146 = DIRECTION ( 'NONE',  ( 1.000000000000000000, 0.000000000000000000, -0.000000000000000000 ) ) ;
#147 = CYLINDRICAL_SURFACE ( 'NONE', #28, 8.000000000000000000 ) ;
#148 = CARTESIAN_POINT ( 'NONE',  ( 8.000000000000000000, 9.797174393178825657E-16, 1200.000000000000000 ) ) ;
#149 = CARTESIAN_POINT ( 'NONE',  ( 0.000000000000000000, 0.000000000000000000, 1200.000000000000000 ) ) ;
#150 = EDGE_CURVE ( 'NONE', #70, #255, #156, .T. ) ;
#151 = ORIENTED_EDGE ( 'NONE', *, *, #150, .F. ) ;
#152 =( NAMED_UNIT ( * ) SI_UNIT ( $, .STERADIAN. ) SOLID_ANGLE_UNIT ( ) );
#153 = VERTEX_POINT ( 'NONE', #50 ) ;
#154 = DATE_AND_TIME ( #32, #232 ) ;
#155 = ORIENTED_EDGE ( 'NONE', *, *, #79, .F. ) ;
#156 = CIRCLE ( 'NONE', #40, 11.00000000000000000 ) ;
#157 = EDGE_LOOP ( 'NONE', ( #162, #45, #203, #239 ) ) ;
#158 = DIRECTION ( 'NONE',  ( 0.000000000000000000, 0.000000000000000000, 1.000000000000000000 ) ) ;
#159 = DIRECTION ( 'NONE',  ( 0.000000000000000000, 0.000000000000000000, 1.000000000000000000 ) ) ;
#160 = DIRECTION ( 'NONE',  ( -0.000000000000000000, -0.000000000000000000, -1.000000000000000000 ) ) ;
#161 = CYLINDRICAL_SURFACE ( 'NONE', #23, 11.00000000000000000 ) ;
#162 = ORIENTED_EDGE ( 'NONE', *, *, #220, .F. ) ;
#163 = DIRECTION ( 'NONE',  ( 0.000000000000000000, 0.000000000000000000, 1.000000000000000000 ) ) ;
#164 = LINE ( 'NONE', #26, #60 ) ;
#165 = AXIS2_PLACEMENT_3D ( 'NONE', #107, #188, #53 ) ;
#166 = DIRECTION ( 'NONE',  ( 1.000000000000000000, 0.000000000000000000, 0.000000000000000000 ) ) ;
#167 = APPROVAL_ROLE ( '' ) ;
#168 = PERSON_AND_ORGANIZATION ( #231, #12 ) ;
#169 = ORIENTED_EDGE ( 'NONE', *, *, #182, .T. ) ;
#170 = EDGE_LOOP ( 'NONE', ( #133, #19 ) ) ;
#171 = DIRECTION ( 'NONE',  ( 0.000000000000000000, 0.000000000000000000, 1.000000000000000000 ) ) ;
#172 = CIRCLE ( 'NONE', #63, 8.000000000000000000 ) ;
#173 = ORIENTED_EDGE ( 'NONE', *, *, #248, .F. ) ;
#174 = APPROVAL_PERSON_ORGANIZATION ( #55, #252, #167 ) ;
#175 = PERSON_AND_ORGANIZATION ( #231, #12 ) ;
#176 = CARTESIAN_POINT ( 'NONE',  ( 0.000000000000000000, 0.000000000000000000, 7.000000000000000000 ) ) ;
#177 = COORDINATED_UNIVERSAL_TIME_OFFSET ( 1, 0, .AHEAD. ) ;
#178 = LINE ( 'NONE', #1, #34 ) ;
#179 = CARTESIAN_POINT ( 'NONE',  ( 11.00000000000000000, 1.347111479062088405E-15, 7.000000000000000000 ) ) ;
#180 = APPROVAL_PERSON_ORGANIZATION ( #212, #98, #38 ) ;
#181 = DIRECTION ( 'NONE',  ( 0.000000000000000000, 0.000000000000000000, 1.000000000000000000 ) ) ;
#182 = EDGE_CURVE ( 'NONE', #255, #192, #164, .T. ) ;
#183 = CARTESIAN_POINT ( 'NONE',  ( 11.00000000000000000, 1.347111479062088405E-15, 0.000000000000000000 ) ) ;
#184 = APPROVAL_STATUS ( 'not_yet_approved' ) ;
#185 = CARTESIAN_POINT ( 'NONE',  ( 0.000000000000000000, 0.000000000000000000, 0.000000000000000000 ) ) ;
#186 = FACE_OUTER_BOUND ( 'NONE', #14, .T. ) ;
#187 = PERSON_AND_ORGANIZATION_ROLE ( 'design_owner' ) ;
#188 = DIRECTION ( 'NONE',  ( 0.000000000000000000, 0.000000000000000000, 1.000000000000000000 ) ) ;
#189 = ORIENTED_EDGE ( 'NONE', *, *, #198, .T. ) ;
#190 = EDGE_CURVE ( 'NONE', #93, #112, #142, .T. ) ;
#191 = COORDINATED_UNIVERSAL_TIME_OFFSET ( 1, 0, .AHEAD. ) ;
#192 = VERTEX_POINT ( 'NONE', #183 ) ;
#193 = CARTESIAN_POINT ( 'NONE',  ( -11.00000000000000000, 0.000000000000000000, 0.000000000000000000 ) ) ;
#194 = APPROVAL_DATE_TIME ( #154, #252 ) ;
#195 = EDGE_CURVE ( 'NONE', #33, #93, #72, .T. ) ;
#196 = ORIENTED_EDGE ( 'NONE', *, *, #195, .F. ) ;
#197 = CC_DESIGN_SECURITY_CLASSIFICATION ( #74, ( #235 ) ) ;
#198 = EDGE_CURVE ( 'NONE', #153, #112, #47, .T. ) ;
#199 = DIRECTION ( 'NONE',  ( 1.000000000000000000, 0.000000000000000000, 0.000000000000000000 ) ) ;
#200 = CC_DESIGN_PERSON_AND_ORGANIZATION_ASSIGNMENT ( #175, #104, ( #235 ) ) ;
#201 = CIRCLE ( 'NONE', #111, 11.00000000000000000 ) ;
#202 = DIRECTION ( 'NONE',  ( 1.000000000000000000, 0.000000000000000000, 0.000000000000000000 ) ) ;
#203 = ORIENTED_EDGE ( 'NONE', *, *, #190, .T. ) ;
#204 = SECURITY_CLASSIFICATION_LEVEL ( 'unclassified' ) ;
#205 = CARTESIAN_POINT ( 'NONE',  ( -8.000000000000000000, 0.000000000000000000, 1200.000000000000000 ) ) ;
#206 = COORDINATED_UNIVERSAL_TIME_OFFSET ( 1, 0, .AHEAD. ) ;
#207 = AXIS2_PLACEMENT_3D ( 'NONE', #185, #27, #146 ) ;
#208 = AXIS2_PLACEMENT_3D ( 'NONE', #24, #88, #246 ) ;
#209 = DIRECTION ( 'NONE',  ( -1.000000000000000000, 0.000000000000000000, 0.000000000000000000 ) ) ;
#210 = ORIENTED_EDGE ( 'NONE', *, *, #77, .T. ) ;
#211 = CC_DESIGN_DATE_AND_TIME_ASSIGNMENT ( #132, #57, ( #145 ) ) ;
#212 = PERSON_AND_ORGANIZATION ( #231, #12 ) ;
#213 = ORIENTED_EDGE ( 'NONE', *, *, #7, .T. ) ;
#214 = VECTOR ( 'NONE', #129, 1000.000000000000000 ) ;
#215 = CARTESIAN_POINT ( 'NONE',  ( 8.000000000000000000, 9.797174393178825657E-16, 1200.000000000000000 ) ) ;
#216 = CARTESIAN_POINT ( 'NONE',  ( 0.000000000000000000, 0.000000000000000000, 0.000000000000000000 ) ) ;
#217 = CYLINDRICAL_SURFACE ( 'NONE', #11, 8.000000000000000000 ) ;
#218 = COORDINATED_UNIVERSAL_TIME_OFFSET ( 1, 0, .AHEAD. ) ;
#219 = DIRECTION ( 'NONE',  ( -1.000000000000000000, 0.000000000000000000, 0.000000000000000000 ) ) ;
#220 = EDGE_CURVE ( 'NONE', #33, #153, #61, .T. ) ;
#221 = FACE_OUTER_BOUND ( 'NONE', #52, .T. ) ;
#222 = DIRECTION ( 'NONE',  ( -0.000000000000000000, -0.000000000000000000, -1.000000000000000000 ) ) ;
#223 = CIRCLE ( 'NONE', #247, 8.000000000000000000 ) ;
#224 = CC_DESIGN_PERSON_AND_ORGANIZATION_ASSIGNMENT ( #168, #251, ( #145 ) ) ;
#225 = ORIENTED_EDGE ( 'NONE', *, *, #7, .F. ) ;
#226 = CALENDAR_DATE ( 2023, 12, 2 ) ;
#227 = ORIENTED_EDGE ( 'NONE', *, *, #248, .T. ) ;
#228 = ORIENTED_EDGE ( 'NONE', *, *, #77, .F. ) ;
#229 = CC_DESIGN_PERSON_AND_ORGANIZATION_ASSIGNMENT ( #25, #143, ( #74 ) ) ;
#230 = PLANE ( 'NONE',  #119 ) ;
#231 = PERSON ( 'NEURÈENÝ', 'NEURÈENÝ', 'NEURÈENÝ', ('NEURÈENÝ'), ('NEURÈENÝ'), ('NEURÈENÝ') ) ;
#232 = LOCAL_TIME ( 11, 42, 18.00000000000000000, #110 ) ;
#233 = DATE_AND_TIME ( #78, #18 ) ;
#234 = PERSON_AND_ORGANIZATION ( #231, #12 ) ;
#235 = PRODUCT_DEFINITION_FORMATION_WITH_SPECIFIED_SOURCE ( 'LIBOVOLNÝ', '', #135, .NOT_KNOWN. ) ;
#236 = ADVANCED_FACE ( 'NONE', ( #186 ), #126, .T. ) ;
#237 = DIRECTION ( 'NONE',  ( 0.000000000000000000, 0.000000000000000000, 1.000000000000000000 ) ) ;
#238 = CARTESIAN_POINT ( 'NONE',  ( 0.000000000000000000, 0.000000000000000000, 7.000000000000000000 ) ) ;
#239 = ORIENTED_EDGE ( 'NONE', *, *, #198, .F. ) ;
#240 = DATE_AND_TIME ( #125, #80 ) ;
#241 = ADVANCED_FACE ( 'NONE', ( #73 ), #147, .T. ) ;
#242 = CARTESIAN_POINT ( 'NONE',  ( 0.000000000000000000, 0.000000000000000000, 1200.000000000000000 ) ) ;
#243 = CIRCLE ( 'NONE', #2, 11.00000000000000000 ) ;
#244 = SHAPE_DEFINITION_REPRESENTATION ( #102, #62 ) ;
#245 = CARTESIAN_POINT ( 'NONE',  ( 8.000000000000000000, 9.797174393178825657E-16, 7.000000000000000000 ) ) ;
#246 = DIRECTION ( 'NONE',  ( -1.000000000000000000, 0.000000000000000000, 0.000000000000000000 ) ) ;
#247 = AXIS2_PLACEMENT_3D ( 'NONE', #94, #171, #58 ) ;
#248 = EDGE_CURVE ( 'NONE', #255, #70, #90, .T. ) ;
#249 = APPLICATION_PROTOCOL_DEFINITION ( 'international standard', 'config_control_design', 1994, #15 ) ;
#250 = ORIENTED_EDGE ( 'NONE', *, *, #17, .F. ) ;
#251 = PERSON_AND_ORGANIZATION_ROLE ( 'creator' ) ;
#252 = APPROVAL ( #92, 'NEURÈENÝ' ) ;
#253 = DIRECTION ( 'NONE',  ( 0.000000000000000000, 0.000000000000000000, 1.000000000000000000 ) ) ;
#254 = AXIS2_PLACEMENT_3D ( 'NONE', #8, #30, #71 ) ;
#255 = VERTEX_POINT ( 'NONE', #179 ) ;
ENDSEC;
END-ISO-10303-21;
