ISO-10303-21;
HEADER;
FILE_DESCRIPTION (( 'STEP AP203' ),
    '1' );
FILE_NAME ('56ee.STEP',
    '2023-02-12T12:26:15',
    ( '' ),
    ( '' ),
    'SwSTEP 2.0',
    'SolidWorks 2019',
    '' );
FILE_SCHEMA (( 'CONFIG_CONTROL_DESIGN' ));
ENDSEC;

DATA;
#1 = CARTESIAN_POINT ( 'NONE',  ( 0.000000000000000000, 0.000000000000000000, 3.000000000000000000 ) ) ;
#2 = EDGE_CURVE ( 'NONE', #203, #202, #28, .T. ) ;
#3 = AXIS2_PLACEMENT_3D ( 'NONE', #191, #7, #192 ) ;
#4 = AXIS2_PLACEMENT_3D ( 'NONE', #199, #234, #20 ) ;
#5 = CC_DESIGN_PERSON_AND_ORGANIZATION_ASSIGNMENT ( #244, #154, ( #132 ) ) ;
#6 = COORDINATED_UNIVERSAL_TIME_OFFSET ( 1, 0, .AHEAD. ) ;
#7 = DIRECTION ( 'NONE',  ( -0.000000000000000000, -0.000000000000000000, -1.000000000000000000 ) ) ;
#8 = PERSON_AND_ORGANIZATION ( #68, #159 ) ;
#9 = ORIENTED_EDGE ( 'NONE', *, *, #215, .F. ) ;
#10 = AXIS2_PLACEMENT_3D ( 'NONE', #131, #115, #142 ) ;
#11 = PERSON_AND_ORGANIZATION_ROLE ( 'design_owner' ) ;
#12 = CARTESIAN_POINT ( 'NONE',  ( -5.000000000000000000, 0.000000000000000000, 3.000000000000000000 ) ) ;
#13 = APPROVAL_STATUS ( 'not_yet_approved' ) ;
#14 = DIRECTION ( 'NONE',  ( -0.000000000000000000, -0.000000000000000000, -1.000000000000000000 ) ) ;
#15 = DIRECTION ( 'NONE',  ( 1.000000000000000000, 0.000000000000000000, -0.000000000000000000 ) ) ;
#16 = CARTESIAN_POINT ( 'NONE',  ( -5.000000000000000000, 0.000000000000000000, 3.000000000000000000 ) ) ;
#17 = ADVANCED_FACE ( 'NONE', ( #247 ), #226, .F. ) ;
#18 = APPROVAL ( #13, 'NEURÈENÝ' ) ;
#19 = CARTESIAN_POINT ( 'NONE',  ( -2.600000000000000089, 0.000000000000000000, 1000.000000000000000 ) ) ;
#20 = DIRECTION ( 'NONE',  ( 1.000000000000000000, 0.000000000000000000, 0.000000000000000000 ) ) ;
#21 = AXIS2_PLACEMENT_3D ( 'NONE', #178, #212, #40 ) ;
#22 = AXIS2_PLACEMENT_3D ( 'NONE', #81, #59, #162 ) ;
#23 = VERTEX_POINT ( 'NONE', #112 ) ;
#24 = CC_DESIGN_PERSON_AND_ORGANIZATION_ASSIGNMENT ( #88, #210, ( #132 ) ) ;
#25 = APPLICATION_PROTOCOL_DEFINITION ( 'international standard', 'config_control_design', 1994, #133 ) ;
#26 = DATE_AND_TIME ( #33, #139 ) ;
#27 = PRODUCT ( '56ee', '56ee', '', ( #161 ) ) ;
#28 = LINE ( 'NONE', #190, #39 ) ;
#29 = DATE_AND_TIME ( #208, #235 ) ;
#30 = PLANE ( 'NONE',  #240 ) ;
#31 = COORDINATED_UNIVERSAL_TIME_OFFSET ( 1, 0, .AHEAD. ) ;
#32 = ORIENTED_EDGE ( 'NONE', *, *, #106, .F. ) ;
#33 = CALENDAR_DATE ( 2023, 12, 2 ) ;
#34 = CARTESIAN_POINT ( 'NONE',  ( 0.000000000000000000, 0.000000000000000000, 3.000000000000000000 ) ) ;
#35 = DIRECTION ( 'NONE',  ( 1.000000000000000000, 0.000000000000000000, 0.000000000000000000 ) ) ;
#36 = ADVANCED_FACE ( 'NONE', ( #158, #251 ), #30, .T. ) ;
#37 = APPLICATION_PROTOCOL_DEFINITION ( 'international standard', 'config_control_design', 1994, #50 ) ;
#38 = CARTESIAN_POINT ( 'NONE',  ( 2.600000000000000089, 3.184081677783118191E-16, 1000.000000000000000 ) ) ;
#39 = VECTOR ( 'NONE', #94, 1000.000000000000000 ) ;
#40 = DIRECTION ( 'NONE',  ( 1.000000000000000000, 0.000000000000000000, 0.000000000000000000 ) ) ;
#41 = EDGE_LOOP ( 'NONE', ( #120, #9 ) ) ;
#42 = APPROVAL_PERSON_ORGANIZATION ( #193, #18, #90 ) ;
#43 = EDGE_LOOP ( 'NONE', ( #60, #165, #62, #149 ) ) ;
#44 = ORIENTED_EDGE ( 'NONE', *, *, #201, .T. ) ;
#45 = ADVANCED_FACE ( 'NONE', ( #105 ), #53, .T. ) ;
#46 = ADVANCED_FACE ( 'NONE', ( #195 ), #110, .T. ) ;
#47 = PERSON_AND_ORGANIZATION ( #68, #159 ) ;
#48 = FACE_OUTER_BOUND ( 'NONE', #121, .T. ) ;
#49 = CARTESIAN_POINT ( 'NONE',  ( 0.000000000000000000, 0.000000000000000000, 0.000000000000000000 ) ) ;
#50 = APPLICATION_CONTEXT ( 'configuration controlled 3d designs of mechanical parts and assemblies' ) ;
#51 = APPROVAL_PERSON_ORGANIZATION ( #134, #144, #54 ) ;
#52 = COORDINATED_UNIVERSAL_TIME_OFFSET ( 1, 0, .AHEAD. ) ;
#53 = CYLINDRICAL_SURFACE ( 'NONE', #3, 5.000000000000000000 ) ;
#54 = APPROVAL_ROLE ( '' ) ;
#55 = EDGE_LOOP ( 'NONE', ( #123, #32 ) ) ;
#56 = DIRECTION ( 'NONE',  ( -0.000000000000000000, -0.000000000000000000, -1.000000000000000000 ) ) ;
#57 = CIRCLE ( 'NONE', #169, 2.600000000000000089 ) ;
#58 = LINE ( 'NONE', #16, #83 ) ;
#59 = DIRECTION ( 'NONE',  ( 0.000000000000000000, 0.000000000000000000, 1.000000000000000000 ) ) ;
#60 = ORIENTED_EDGE ( 'NONE', *, *, #2, .F. ) ;
#61 = AXIS2_PLACEMENT_3D ( 'NONE', #254, #196, #15 ) ;
#62 = ORIENTED_EDGE ( 'NONE', *, *, #224, .T. ) ;
#63 = CC_DESIGN_APPROVAL ( #144, ( #206 ) ) ;
#64 = VERTEX_POINT ( 'NONE', #12 ) ;
#65 = APPROVAL ( #87, 'NEURÈENÝ' ) ;
#66 = ORIENTED_EDGE ( 'NONE', *, *, #117, .T. ) ;
#67 = EDGE_LOOP ( 'NONE', ( #216, #218 ) ) ;
#68 = PERSON ( 'NEURÈENÝ', 'NEURÈENÝ', 'NEURÈENÝ', ('NEURÈENÝ'), ('NEURÈENÝ'), ('NEURÈENÝ') ) ;
#69 = PERSON_AND_ORGANIZATION_ROLE ( 'classification_officer' ) ;
#70 = VECTOR ( 'NONE', #138, 1000.000000000000000 ) ;
#71 = AXIS2_PLACEMENT_3D ( 'NONE', #153, #89, #204 ) ;
#72 = CARTESIAN_POINT ( 'NONE',  ( 0.000000000000000000, 0.000000000000000000, 3.000000000000000000 ) ) ;
#73 = APPROVAL_ROLE ( '' ) ;
#74 = VERTEX_POINT ( 'NONE', #152 ) ;
#75 = CYLINDRICAL_SURFACE ( 'NONE', #182, 2.600000000000000089 ) ;
#76 = CC_DESIGN_PERSON_AND_ORGANIZATION_ASSIGNMENT ( #47, #130, ( #150 ) ) ;
#77 = DIRECTION ( 'NONE',  ( 0.000000000000000000, 0.000000000000000000, 1.000000000000000000 ) ) ;
#78 = MANIFOLD_SOLID_BREP ( 'Pøidat vysunutím3', #213 ) ;
#79 = DIRECTION ( 'NONE',  ( -0.000000000000000000, -0.000000000000000000, -1.000000000000000000 ) ) ;
#80 = CARTESIAN_POINT ( 'NONE',  ( 5.000000000000000000, 6.123233995736766282E-16, 0.000000000000000000 ) ) ;
#81 = CARTESIAN_POINT ( 'NONE',  ( 0.000000000000000000, 0.000000000000000000, 0.000000000000000000 ) ) ;
#82 = LINE ( 'NONE', #38, #96 ) ;
#83 = VECTOR ( 'NONE', #160, 1000.000000000000000 ) ;
#84 = ORIENTED_EDGE ( 'NONE', *, *, #215, .T. ) ;
#85 = LOCAL_TIME ( 13, 26, 15.00000000000000000, #6 ) ;
#86 = AXIS2_PLACEMENT_3D ( 'NONE', #34, #95, #207 ) ;
#87 = APPROVAL_STATUS ( 'not_yet_approved' ) ;
#88 = PERSON_AND_ORGANIZATION ( #68, #159 ) ;
#89 = DIRECTION ( 'NONE',  ( 0.000000000000000000, 0.000000000000000000, 1.000000000000000000 ) ) ;
#90 = APPROVAL_ROLE ( '' ) ;
#91 = ORIENTED_EDGE ( 'NONE', *, *, #106, .T. ) ;
#92 = ADVANCED_FACE ( 'NONE', ( #252 ), #75, .T. ) ;
#93 = PRODUCT_RELATED_PRODUCT_CATEGORY ( 'detail', '', ( #27 ) ) ;
#94 = DIRECTION ( 'NONE',  ( -0.000000000000000000, -0.000000000000000000, -1.000000000000000000 ) ) ;
#95 = DIRECTION ( 'NONE',  ( 0.000000000000000000, 0.000000000000000000, 1.000000000000000000 ) ) ;
#96 = VECTOR ( 'NONE', #79, 1000.000000000000000 ) ;
#97 = LOCAL_TIME ( 13, 26, 15.00000000000000000, #52 ) ;
#98 = PLANE ( 'NONE',  #61 ) ;
#99 =( NAMED_UNIT ( * ) PLANE_ANGLE_UNIT ( ) SI_UNIT ( $, .RADIAN. ) );
#100 = DIRECTION ( 'NONE',  ( 0.000000000000000000, 0.000000000000000000, 1.000000000000000000 ) ) ;
#101 = ORIENTED_EDGE ( 'NONE', *, *, #126, .F. ) ;
#102 =( GEOMETRIC_REPRESENTATION_CONTEXT ( 3 ) GLOBAL_UNCERTAINTY_ASSIGNED_CONTEXT ( ( #229 ) ) GLOBAL_UNIT_ASSIGNED_CONTEXT ( ( #237, #99, #214 ) ) REPRESENTATION_CONTEXT ( 'NONE', 'WORKASPACE' ) );
#103 = DATE_AND_TIME ( #151, #85 ) ;
#104 = PERSON_AND_ORGANIZATION ( #68, #159 ) ;
#105 = FACE_OUTER_BOUND ( 'NONE', #43, .T. ) ;
#106 = EDGE_CURVE ( 'NONE', #174, #74, #197, .T. ) ;
#107 = CARTESIAN_POINT ( 'NONE',  ( 0.000000000000000000, 0.000000000000000000, 1000.000000000000000 ) ) ;
#108 = CALENDAR_DATE ( 2023, 12, 2 ) ;
#109 = CIRCLE ( 'NONE', #71, 5.000000000000000000 ) ;
#110 = CYLINDRICAL_SURFACE ( 'NONE', #200, 2.600000000000000089 ) ;
#111 = COORDINATED_UNIVERSAL_TIME_OFFSET ( 1, 0, .AHEAD. ) ;
#112 = CARTESIAN_POINT ( 'NONE',  ( 2.600000000000000089, 3.184081677783118191E-16, 1000.000000000000000 ) ) ;
#113 = APPROVAL_PERSON_ORGANIZATION ( #172, #65, #73 ) ;
#114 = DESIGN_CONTEXT ( 'detailed design', #133, 'design' ) ;
#115 = DIRECTION ( 'NONE',  ( 0.000000000000000000, 0.000000000000000000, 1.000000000000000000 ) ) ;
#116 = DIRECTION ( 'NONE',  ( 1.000000000000000000, 0.000000000000000000, 0.000000000000000000 ) ) ;
#117 = EDGE_CURVE ( 'NONE', #242, #74, #221, .T. ) ;
#118 = CARTESIAN_POINT ( 'NONE',  ( 5.000000000000000000, 6.123233995736766282E-16, 3.000000000000000000 ) ) ;
#119 = CARTESIAN_POINT ( 'NONE',  ( 2.600000000000000089, 3.184081677783118191E-16, 3.000000000000000000 ) ) ;
#120 = ORIENTED_EDGE ( 'NONE', *, *, #227, .F. ) ;
#121 = EDGE_LOOP ( 'NONE', ( #101, #183, #84, #238 ) ) ;
#122 = ADVANCED_FACE ( 'NONE', ( #48 ), #231, .T. ) ;
#123 = ORIENTED_EDGE ( 'NONE', *, *, #171, .F. ) ;
#124 = EDGE_LOOP ( 'NONE', ( #186, #44, #91, #166 ) ) ;
#125 = CC_DESIGN_PERSON_AND_ORGANIZATION_ASSIGNMENT ( #104, #69, ( #206 ) ) ;
#126 = EDGE_CURVE ( 'NONE', #203, #64, #109, .T. ) ;
#127 = DIRECTION ( 'NONE',  ( -1.000000000000000000, 0.000000000000000000, 0.000000000000000000 ) ) ;
#128 = CIRCLE ( 'NONE', #4, 5.000000000000000000 ) ;
#129 = EDGE_CURVE ( 'NONE', #23, #242, #140, .T. ) ;
#130 = PERSON_AND_ORGANIZATION_ROLE ( 'creator' ) ;
#131 = CARTESIAN_POINT ( 'NONE',  ( 0.000000000000000000, 0.000000000000000000, 1000.000000000000000 ) ) ;
#132 = PRODUCT_DEFINITION_FORMATION_WITH_SPECIFIED_SOURCE ( 'LIBOVOLNÝ', '', #27, .NOT_KNOWN. ) ;
#133 = APPLICATION_CONTEXT ( 'configuration controlled 3d designs of mechanical parts and assemblies' ) ;
#134 = PERSON_AND_ORGANIZATION ( #68, #159 ) ;
#135 = DIRECTION ( 'NONE',  ( -0.000000000000000000, -0.000000000000000000, -1.000000000000000000 ) ) ;
#136 = COORDINATED_UNIVERSAL_TIME_OFFSET ( 1, 0, .AHEAD. ) ;
#137 = CARTESIAN_POINT ( 'NONE',  ( 0.000000000000000000, 0.000000000000000000, 3.000000000000000000 ) ) ;
#138 = DIRECTION ( 'NONE',  ( -0.000000000000000000, -0.000000000000000000, -1.000000000000000000 ) ) ;
#139 = LOCAL_TIME ( 13, 26, 15.00000000000000000, #111 ) ;
#140 = CIRCLE ( 'NONE', #10, 2.600000000000000089 ) ;
#141 = EDGE_CURVE ( 'NONE', #64, #203, #217, .T. ) ;
#142 = DIRECTION ( 'NONE',  ( 1.000000000000000000, 0.000000000000000000, 0.000000000000000000 ) ) ;
#143 = AXIS2_PLACEMENT_3D ( 'NONE', #1, #211, #35 ) ;
#144 = APPROVAL ( #156, 'NEURÈENÝ' ) ;
#145 = DIRECTION ( 'NONE',  ( 1.000000000000000000, 0.000000000000000000, 0.000000000000000000 ) ) ;
#146 = CARTESIAN_POINT ( 'NONE',  ( -5.000000000000000000, 0.000000000000000000, 0.000000000000000000 ) ) ;
#147 = EDGE_LOOP ( 'NONE', ( #173, #241, #66, #184 ) ) ;
#148 = EDGE_LOOP ( 'NONE', ( #239, #223 ) ) ;
#149 = ORIENTED_EDGE ( 'NONE', *, *, #227, .T. ) ;
#150 = PRODUCT_DEFINITION ( 'NEZNÁMÝ', '', #132, #114 ) ;
#151 = CALENDAR_DATE ( 2023, 12, 2 ) ;
#152 = CARTESIAN_POINT ( 'NONE',  ( -2.600000000000000089, 0.000000000000000000, 3.000000000000000000 ) ) ;
#153 = CARTESIAN_POINT ( 'NONE',  ( 0.000000000000000000, 0.000000000000000000, 3.000000000000000000 ) ) ;
#154 = PERSON_AND_ORGANIZATION_ROLE ( 'creator' ) ;
#155 = DIRECTION ( 'NONE',  ( 1.000000000000000000, 0.000000000000000000, -0.000000000000000000 ) ) ;
#156 = APPROVAL_STATUS ( 'not_yet_approved' ) ;
#157 = CARTESIAN_POINT ( 'NONE',  ( 0.000000000000000000, 0.000000000000000000, 1000.000000000000000 ) ) ;
#158 = FACE_BOUND ( 'NONE', #55, .T. ) ;
#159 = ORGANIZATION ( 'NEURÈENÝ', 'NEURÈENÝ', '' ) ;
#160 = DIRECTION ( 'NONE',  ( -0.000000000000000000, -0.000000000000000000, -1.000000000000000000 ) ) ;
#161 = MECHANICAL_CONTEXT ( 'NONE', #50, 'mechanical' ) ;
#162 = DIRECTION ( 'NONE',  ( 1.000000000000000000, 0.000000000000000000, 0.000000000000000000 ) ) ;
#163 = VERTEX_POINT ( 'NONE', #146 ) ;
#164 = LOCAL_TIME ( 13, 26, 15.00000000000000000, #136 ) ;
#165 = ORIENTED_EDGE ( 'NONE', *, *, #141, .F. ) ;
#166 = ORIENTED_EDGE ( 'NONE', *, *, #117, .F. ) ;
#167 = DATE_AND_TIME ( #108, #164 ) ;
#168 = CC_DESIGN_SECURITY_CLASSIFICATION ( #206, ( #132 ) ) ;
#169 = AXIS2_PLACEMENT_3D ( 'NONE', #233, #180, #116 ) ;
#170 = DIRECTION ( 'NONE',  ( 0.000000000000000000, 0.000000000000000000, 1.000000000000000000 ) ) ;
#171 = EDGE_CURVE ( 'NONE', #74, #174, #177, .T. ) ;
#172 = PERSON_AND_ORGANIZATION ( #68, #159 ) ;
#173 = ORIENTED_EDGE ( 'NONE', *, *, #201, .F. ) ;
#174 = VERTEX_POINT ( 'NONE', #119 ) ;
#175 = CARTESIAN_POINT ( 'NONE',  ( -2.600000000000000089, 0.000000000000000000, 1000.000000000000000 ) ) ;
#176 = ADVANCED_BREP_SHAPE_REPRESENTATION ( '56ee', ( #78, #21 ), #102 ) ;
#177 = CIRCLE ( 'NONE', #143, 2.600000000000000089 ) ;
#178 = CARTESIAN_POINT ( 'NONE',  ( 0.000000000000000000, 0.000000000000000000, 0.000000000000000000 ) ) ;
#179 = ADVANCED_FACE ( 'NONE', ( #255 ), #98, .T. ) ;
#180 = DIRECTION ( 'NONE',  ( 0.000000000000000000, 0.000000000000000000, 1.000000000000000000 ) ) ;
#181 = AXIS2_PLACEMENT_3D ( 'NONE', #198, #100, #145 ) ;
#182 = AXIS2_PLACEMENT_3D ( 'NONE', #157, #14, #230 ) ;
#183 = ORIENTED_EDGE ( 'NONE', *, *, #2, .T. ) ;
#184 = ORIENTED_EDGE ( 'NONE', *, *, #171, .T. ) ;
#185 = CC_DESIGN_DATE_AND_TIME_ASSIGNMENT ( #26, #187, ( #150 ) ) ;
#186 = ORIENTED_EDGE ( 'NONE', *, *, #129, .F. ) ;
#187 = DATE_TIME_ROLE ( 'creation_date' ) ;
#188 = APPROVAL_DATE_TIME ( #29, #144 ) ;
#189 = CC_DESIGN_APPROVAL ( #65, ( #132 ) ) ;
#190 = CARTESIAN_POINT ( 'NONE',  ( 5.000000000000000000, 6.123233995736766282E-16, 3.000000000000000000 ) ) ;
#191 = CARTESIAN_POINT ( 'NONE',  ( 0.000000000000000000, 0.000000000000000000, 3.000000000000000000 ) ) ;
#192 = DIRECTION ( 'NONE',  ( -1.000000000000000000, 0.000000000000000000, 0.000000000000000000 ) ) ;
#193 = PERSON_AND_ORGANIZATION ( #68, #159 ) ;
#194 = CC_DESIGN_DATE_AND_TIME_ASSIGNMENT ( #246, #220, ( #206 ) ) ;
#195 = FACE_OUTER_BOUND ( 'NONE', #147, .T. ) ;
#196 = DIRECTION ( 'NONE',  ( 0.000000000000000000, 0.000000000000000000, 1.000000000000000000 ) ) ;
#197 = CIRCLE ( 'NONE', #86, 2.600000000000000089 ) ;
#198 = CARTESIAN_POINT ( 'NONE',  ( 0.000000000000000000, 0.000000000000000000, 3.000000000000000000 ) ) ;
#199 = CARTESIAN_POINT ( 'NONE',  ( 0.000000000000000000, 0.000000000000000000, 0.000000000000000000 ) ) ;
#200 = AXIS2_PLACEMENT_3D ( 'NONE', #107, #135, #209 ) ;
#201 = EDGE_CURVE ( 'NONE', #23, #174, #82, .T. ) ;
#202 = VERTEX_POINT ( 'NONE', #80 ) ;
#203 = VERTEX_POINT ( 'NONE', #118 ) ;
#204 = DIRECTION ( 'NONE',  ( 1.000000000000000000, 0.000000000000000000, 0.000000000000000000 ) ) ;
#205 = SHAPE_DEFINITION_REPRESENTATION ( #245, #176 ) ;
#206 = SECURITY_CLASSIFICATION ( '', '', #225 ) ;
#207 = DIRECTION ( 'NONE',  ( 1.000000000000000000, 0.000000000000000000, 0.000000000000000000 ) ) ;
#208 = CALENDAR_DATE ( 2023, 12, 2 ) ;
#209 = DIRECTION ( 'NONE',  ( -1.000000000000000000, 0.000000000000000000, 0.000000000000000000 ) ) ;
#210 = PERSON_AND_ORGANIZATION_ROLE ( 'design_supplier' ) ;
#211 = DIRECTION ( 'NONE',  ( 0.000000000000000000, 0.000000000000000000, 1.000000000000000000 ) ) ;
#212 = DIRECTION ( 'NONE',  ( 0.000000000000000000, 0.000000000000000000, 1.000000000000000000 ) ) ;
#213 = CLOSED_SHELL ( 'NONE', ( #92, #122, #45, #36, #17, #46, #179 ) ) ;
#214 =( NAMED_UNIT ( * ) SI_UNIT ( $, .STERADIAN. ) SOLID_ANGLE_UNIT ( ) );
#215 = EDGE_CURVE ( 'NONE', #202, #163, #128, .T. ) ;
#216 = ORIENTED_EDGE ( 'NONE', *, *, #141, .T. ) ;
#217 = CIRCLE ( 'NONE', #181, 5.000000000000000000 ) ;
#218 = ORIENTED_EDGE ( 'NONE', *, *, #126, .T. ) ;
#219 = CIRCLE ( 'NONE', #22, 5.000000000000000000 ) ;
#220 = DATE_TIME_ROLE ( 'classification_date' ) ;
#221 = LINE ( 'NONE', #175, #70 ) ;
#222 = CALENDAR_DATE ( 2023, 12, 2 ) ;
#223 = ORIENTED_EDGE ( 'NONE', *, *, #129, .T. ) ;
#224 = EDGE_CURVE ( 'NONE', #64, #163, #58, .T. ) ;
#225 = SECURITY_CLASSIFICATION_LEVEL ( 'unclassified' ) ;
#226 = PLANE ( 'NONE',  #232 ) ;
#227 = EDGE_CURVE ( 'NONE', #163, #202, #219, .T. ) ;
#228 = APPROVAL_DATE_TIME ( #167, #65 ) ;
#229 = UNCERTAINTY_MEASURE_WITH_UNIT (LENGTH_MEASURE( 1.000000000000000082E-05 ), #237, 'distance_accuracy_value', 'NONE');
#230 = DIRECTION ( 'NONE',  ( -1.000000000000000000, 0.000000000000000000, 0.000000000000000000 ) ) ;
#231 = CYLINDRICAL_SURFACE ( 'NONE', #249, 5.000000000000000000 ) ;
#232 = AXIS2_PLACEMENT_3D ( 'NONE', #49, #77, #253 ) ;
#233 = CARTESIAN_POINT ( 'NONE',  ( 0.000000000000000000, 0.000000000000000000, 1000.000000000000000 ) ) ;
#234 = DIRECTION ( 'NONE',  ( 0.000000000000000000, 0.000000000000000000, 1.000000000000000000 ) ) ;
#235 = LOCAL_TIME ( 13, 26, 15.00000000000000000, #31 ) ;
#236 = CC_DESIGN_PERSON_AND_ORGANIZATION_ASSIGNMENT ( #8, #11, ( #27 ) ) ;
#237 =( LENGTH_UNIT ( ) NAMED_UNIT ( * ) SI_UNIT ( .MILLI., .METRE. ) );
#238 = ORIENTED_EDGE ( 'NONE', *, *, #224, .F. ) ;
#239 = ORIENTED_EDGE ( 'NONE', *, *, #248, .T. ) ;
#240 = AXIS2_PLACEMENT_3D ( 'NONE', #137, #170, #155 ) ;
#241 = ORIENTED_EDGE ( 'NONE', *, *, #248, .F. ) ;
#242 = VERTEX_POINT ( 'NONE', #19 ) ;
#243 = CC_DESIGN_APPROVAL ( #18, ( #150 ) ) ;
#244 = PERSON_AND_ORGANIZATION ( #68, #159 ) ;
#245 = PRODUCT_DEFINITION_SHAPE ( 'NONE', 'NONE',  #150 ) ;
#246 = DATE_AND_TIME ( #222, #97 ) ;
#247 = FACE_OUTER_BOUND ( 'NONE', #41, .T. ) ;
#248 = EDGE_CURVE ( 'NONE', #242, #23, #57, .T. ) ;
#249 = AXIS2_PLACEMENT_3D ( 'NONE', #72, #56, #127 ) ;
#250 = APPROVAL_DATE_TIME ( #103, #18 ) ;
#251 = FACE_OUTER_BOUND ( 'NONE', #67, .T. ) ;
#252 = FACE_OUTER_BOUND ( 'NONE', #124, .T. ) ;
#253 = DIRECTION ( 'NONE',  ( 1.000000000000000000, 0.000000000000000000, -0.000000000000000000 ) ) ;
#254 = CARTESIAN_POINT ( 'NONE',  ( 0.000000000000000000, 0.000000000000000000, 1000.000000000000000 ) ) ;
#255 = FACE_OUTER_BOUND ( 'NONE', #148, .T. ) ;
ENDSEC;
END-ISO-10303-21;
