ISO-10303-21;
HEADER;
FILE_DESCRIPTION (( 'STEP AP203' ),
    '1' );
FILE_NAME ('accb.STEP',
    '2023-02-12T10:55:04',
    ( '' ),
    ( '' ),
    'SwSTEP 2.0',
    'SolidWorks 2019',
    '' );
FILE_SCHEMA (( 'CONFIG_CONTROL_DESIGN' ));
ENDSEC;

DATA;
#1 = DIRECTION ( 'NONE',  ( 1.000000000000000000, 0.000000000000000000, 0.000000000000000000 ) ) ;
#2 = CIRCLE ( 'NONE', #38, 9.000000000000000000 ) ;
#3 = PRODUCT_RELATED_PRODUCT_CATEGORY ( 'detail', '', ( #26 ) ) ;
#4 = FACE_OUTER_BOUND ( 'NONE', #135, .T. ) ;
#5 = CYLINDRICAL_SURFACE ( 'NONE', #61, 9.000000000000000000 ) ;
#6 = APPROVAL_DATE_TIME ( #214, #237 ) ;
#7 = ORIENTED_EDGE ( 'NONE', *, *, #231, .F. ) ;
#8 = EDGE_CURVE ( 'NONE', #72, #50, #163, .T. ) ;
#9 = CALENDAR_DATE ( 2023, 12, 2 ) ;
#10 = CARTESIAN_POINT ( 'NONE',  ( -6.250000000000000000, 0.000000000000000000, 250.0000000000000000 ) ) ;
#11 = CARTESIAN_POINT ( 'NONE',  ( 0.000000000000000000, 0.000000000000000000, 7.000000000000000000 ) ) ;
#12 = PERSON_AND_ORGANIZATION ( #18, #152 ) ;
#13 = DIRECTION ( 'NONE',  ( 1.000000000000000000, 0.000000000000000000, -0.000000000000000000 ) ) ;
#14 = DIRECTION ( 'NONE',  ( -0.000000000000000000, -0.000000000000000000, -1.000000000000000000 ) ) ;
#15 = EDGE_CURVE ( 'NONE', #175, #50, #127, .T. ) ;
#16 = VECTOR ( 'NONE', #198, 1000.000000000000000 ) ;
#17 = CARTESIAN_POINT ( 'NONE',  ( 0.000000000000000000, 0.000000000000000000, 7.000000000000000000 ) ) ;
#18 = PERSON ( 'NEURÈENÝ', 'NEURÈENÝ', 'NEURÈENÝ', ('NEURÈENÝ'), ('NEURÈENÝ'), ('NEURÈENÝ') ) ;
#19 = CIRCLE ( 'NONE', #187, 6.250000000000000000 ) ;
#20 = CARTESIAN_POINT ( 'NONE',  ( -9.000000000000000000, 0.000000000000000000, 7.000000000000000000 ) ) ;
#21 = ADVANCED_FACE ( 'NONE', ( #247 ), #89, .T. ) ;
#22 = CIRCLE ( 'NONE', #164, 6.250000000000000000 ) ;
#23 = DIRECTION ( 'NONE',  ( -0.000000000000000000, -0.000000000000000000, -1.000000000000000000 ) ) ;
#24 =( NAMED_UNIT ( * ) SI_UNIT ( $, .STERADIAN. ) SOLID_ANGLE_UNIT ( ) );
#25 = CYLINDRICAL_SURFACE ( 'NONE', #157, 6.250000000000000000 ) ;
#26 = PRODUCT ( 'accb', 'accb', '', ( #49 ) ) ;
#27 = SECURITY_CLASSIFICATION ( '', '', #102 ) ;
#28 = CC_DESIGN_DATE_AND_TIME_ASSIGNMENT ( #98, #173, ( #27 ) ) ;
#29 = DIRECTION ( 'NONE',  ( 0.000000000000000000, 0.000000000000000000, 1.000000000000000000 ) ) ;
#30 = APPLICATION_CONTEXT ( 'configuration controlled 3d designs of mechanical parts and assemblies' ) ;
#31 = ORIENTED_EDGE ( 'NONE', *, *, #166, .F. ) ;
#32 = DIRECTION ( 'NONE',  ( 0.000000000000000000, 0.000000000000000000, 1.000000000000000000 ) ) ;
#33 = EDGE_CURVE ( 'NONE', #72, #94, #19, .T. ) ;
#34 = FACE_OUTER_BOUND ( 'NONE', #242, .T. ) ;
#35 = ADVANCED_FACE ( 'NONE', ( #4 ), #25, .T. ) ;
#36 = DIRECTION ( 'NONE',  ( -1.000000000000000000, 0.000000000000000000, 0.000000000000000000 ) ) ;
#37 = DIRECTION ( 'NONE',  ( 1.000000000000000000, 0.000000000000000000, 0.000000000000000000 ) ) ;
#38 = AXIS2_PLACEMENT_3D ( 'NONE', #17, #174, #188 ) ;
#39 = AXIS2_PLACEMENT_3D ( 'NONE', #67, #215, #1 ) ;
#40 = CARTESIAN_POINT ( 'NONE',  ( 6.250000000000000000, 7.654042494670957606E-16, 250.0000000000000000 ) ) ;
#41 =( NAMED_UNIT ( * ) PLANE_ANGLE_UNIT ( ) SI_UNIT ( $, .RADIAN. ) );
#42 = COORDINATED_UNIVERSAL_TIME_OFFSET ( 1, 0, .AHEAD. ) ;
#43 = CLOSED_SHELL ( 'NONE', ( #186, #153, #217, #68, #51, #35, #21 ) ) ;
#44 = VECTOR ( 'NONE', #84, 1000.000000000000000 ) ;
#45 = APPROVAL_ROLE ( '' ) ;
#46 = CC_DESIGN_PERSON_AND_ORGANIZATION_ASSIGNMENT ( #118, #255, ( #108 ) ) ;
#47 = CALENDAR_DATE ( 2023, 12, 2 ) ;
#48 = FACE_OUTER_BOUND ( 'NONE', #199, .T. ) ;
#49 = MECHANICAL_CONTEXT ( 'NONE', #30, 'mechanical' ) ;
#50 = VERTEX_POINT ( 'NONE', #76 ) ;
#51 = ADVANCED_FACE ( 'NONE', ( #205 ), #225, .F. ) ;
#52 = CIRCLE ( 'NONE', #151, 6.250000000000000000 ) ;
#53 = ORIENTED_EDGE ( 'NONE', *, *, #8, .F. ) ;
#54 = APPROVAL_STATUS ( 'not_yet_approved' ) ;
#55 = APPROVAL ( #54, 'NEURÈENÝ' ) ;
#56 = DIRECTION ( 'NONE',  ( 1.000000000000000000, 0.000000000000000000, -0.000000000000000000 ) ) ;
#57 = DIRECTION ( 'NONE',  ( 0.000000000000000000, 0.000000000000000000, 1.000000000000000000 ) ) ;
#58 = DIRECTION ( 'NONE',  ( 0.000000000000000000, 0.000000000000000000, 1.000000000000000000 ) ) ;
#59 = DATE_AND_TIME ( #234, #66 ) ;
#60 = AXIS2_PLACEMENT_3D ( 'NONE', #11, #145, #13 ) ;
#61 = AXIS2_PLACEMENT_3D ( 'NONE', #136, #23, #154 ) ;
#62 = EDGE_CURVE ( 'NONE', #180, #161, #226, .T. ) ;
#63 = COORDINATED_UNIVERSAL_TIME_OFFSET ( 1, 0, .AHEAD. ) ;
#64 = COORDINATED_UNIVERSAL_TIME_OFFSET ( 1, 0, .AHEAD. ) ;
#65 = ORIENTED_EDGE ( 'NONE', *, *, #15, .T. ) ;
#66 = LOCAL_TIME ( 11, 55, 4.000000000000000000, #148 ) ;
#67 = CARTESIAN_POINT ( 'NONE',  ( 0.000000000000000000, 0.000000000000000000, 0.000000000000000000 ) ) ;
#68 = ADVANCED_FACE ( 'NONE', ( #207, #34 ), #93, .T. ) ;
#69 = EDGE_LOOP ( 'NONE', ( #31, #125 ) ) ;
#70 = DATE_TIME_ROLE ( 'creation_date' ) ;
#71 = AXIS2_PLACEMENT_3D ( 'NONE', #92, #167, #251 ) ;
#72 = VERTEX_POINT ( 'NONE', #131 ) ;
#73 = DIRECTION ( 'NONE',  ( 1.000000000000000000, 0.000000000000000000, 0.000000000000000000 ) ) ;
#74 = CARTESIAN_POINT ( 'NONE',  ( -9.000000000000000000, 0.000000000000000000, 7.000000000000000000 ) ) ;
#75 = AXIS2_PLACEMENT_3D ( 'NONE', #116, #14, #191 ) ;
#76 = CARTESIAN_POINT ( 'NONE',  ( -6.250000000000000000, 0.000000000000000000, 7.000000000000000000 ) ) ;
#77 = CC_DESIGN_DATE_AND_TIME_ASSIGNMENT ( #248, #70, ( #176 ) ) ;
#78 = CARTESIAN_POINT ( 'NONE',  ( 0.000000000000000000, 0.000000000000000000, 0.000000000000000000 ) ) ;
#79 = AXIS2_PLACEMENT_3D ( 'NONE', #78, #58, #203 ) ;
#80 = CC_DESIGN_SECURITY_CLASSIFICATION ( #27, ( #108 ) ) ;
#81 = CIRCLE ( 'NONE', #219, 9.000000000000000000 ) ;
#82 = DIRECTION ( 'NONE',  ( -1.000000000000000000, 0.000000000000000000, 0.000000000000000000 ) ) ;
#83 = VERTEX_POINT ( 'NONE', #74 ) ;
#84 = DIRECTION ( 'NONE',  ( -0.000000000000000000, -0.000000000000000000, -1.000000000000000000 ) ) ;
#85 = AXIS2_PLACEMENT_3D ( 'NONE', #216, #224, #56 ) ;
#86 = ORIENTED_EDGE ( 'NONE', *, *, #231, .T. ) ;
#87 = LINE ( 'NONE', #210, #44 ) ;
#88 = EDGE_LOOP ( 'NONE', ( #212, #156, #123, #250 ) ) ;
#89 = PLANE ( 'NONE',  #85 ) ;
#90 = CC_DESIGN_PERSON_AND_ORGANIZATION_ASSIGNMENT ( #12, #169, ( #176 ) ) ;
#91 = ORIENTED_EDGE ( 'NONE', *, *, #112, .F. ) ;
#92 = CARTESIAN_POINT ( 'NONE',  ( 0.000000000000000000, 0.000000000000000000, 0.000000000000000000 ) ) ;
#93 = PLANE ( 'NONE',  #60 ) ;
#94 = VERTEX_POINT ( 'NONE', #96 ) ;
#95 = UNCERTAINTY_MEASURE_WITH_UNIT (LENGTH_MEASURE( 1.000000000000000082E-05 ), #192, 'distance_accuracy_value', 'NONE');
#96 = CARTESIAN_POINT ( 'NONE',  ( 6.250000000000000000, 7.654042494670957606E-16, 250.0000000000000000 ) ) ;
#97 = PERSON_AND_ORGANIZATION_ROLE ( 'creator' ) ;
#98 = DATE_AND_TIME ( #139, #227 ) ;
#99 = DIRECTION ( 'NONE',  ( 0.000000000000000000, 0.000000000000000000, 1.000000000000000000 ) ) ;
#100 = CC_DESIGN_PERSON_AND_ORGANIZATION_ASSIGNMENT ( #196, #106, ( #26 ) ) ;
#101 = PERSON_AND_ORGANIZATION ( #18, #152 ) ;
#102 = SECURITY_CLASSIFICATION_LEVEL ( 'unclassified' ) ;
#103 = ORIENTED_EDGE ( 'NONE', *, *, #166, .T. ) ;
#104 = CC_DESIGN_APPROVAL ( #55, ( #108 ) ) ;
#105 = ORIENTED_EDGE ( 'NONE', *, *, #162, .T. ) ;
#106 = PERSON_AND_ORGANIZATION_ROLE ( 'design_owner' ) ;
#107 = ORIENTED_EDGE ( 'NONE', *, *, #201, .T. ) ;
#108 = PRODUCT_DEFINITION_FORMATION_WITH_SPECIFIED_SOURCE ( 'LIBOVOLNÝ', '', #26, .NOT_KNOWN. ) ;
#109 = APPROVAL_DATE_TIME ( #59, #129 ) ;
#110 = ORIENTED_EDGE ( 'NONE', *, *, #149, .F. ) ;
#111 = MANIFOLD_SOLID_BREP ( 'Pøidat vysunutím3', #43 ) ;
#112 = EDGE_CURVE ( 'NONE', #50, #175, #52, .T. ) ;
#113 = CARTESIAN_POINT ( 'NONE',  ( 0.000000000000000000, 0.000000000000000000, 0.000000000000000000 ) ) ;
#114 = DIRECTION ( 'NONE',  ( 0.000000000000000000, 0.000000000000000000, 1.000000000000000000 ) ) ;
#115 = APPROVAL_DATE_TIME ( #147, #55 ) ;
#116 = CARTESIAN_POINT ( 'NONE',  ( 0.000000000000000000, 0.000000000000000000, 7.000000000000000000 ) ) ;
#117 = APPLICATION_PROTOCOL_DEFINITION ( 'international standard', 'config_control_design', 1994, #30 ) ;
#118 = PERSON_AND_ORGANIZATION ( #18, #152 ) ;
#119 = CC_DESIGN_PERSON_AND_ORGANIZATION_ASSIGNMENT ( #144, #239, ( #27 ) ) ;
#120 = CARTESIAN_POINT ( 'NONE',  ( 9.000000000000000000, 1.102182119232617714E-15, 7.000000000000000000 ) ) ;
#121 = ORIENTED_EDGE ( 'NONE', *, *, #8, .T. ) ;
#122 = APPROVAL_STATUS ( 'not_yet_approved' ) ;
#123 = ORIENTED_EDGE ( 'NONE', *, *, #62, .T. ) ;
#124 = CIRCLE ( 'NONE', #71, 9.000000000000000000 ) ;
#125 = ORIENTED_EDGE ( 'NONE', *, *, #62, .F. ) ;
#126 = CARTESIAN_POINT ( 'NONE',  ( 0.000000000000000000, 0.000000000000000000, 250.0000000000000000 ) ) ;
#127 = CIRCLE ( 'NONE', #171, 6.250000000000000000 ) ;
#128 = DIRECTION ( 'NONE',  ( 1.000000000000000000, 0.000000000000000000, 0.000000000000000000 ) ) ;
#129 = APPROVAL ( #122, 'NEURÈENÝ' ) ;
#130 = LOCAL_TIME ( 11, 55, 4.000000000000000000, #42 ) ;
#131 = CARTESIAN_POINT ( 'NONE',  ( -6.250000000000000000, 0.000000000000000000, 250.0000000000000000 ) ) ;
#132 = LINE ( 'NONE', #20, #222 ) ;
#133 = DIRECTION ( 'NONE',  ( -0.000000000000000000, -0.000000000000000000, -1.000000000000000000 ) ) ;
#134 = EDGE_CURVE ( 'NONE', #83, #218, #81, .T. ) ;
#135 = EDGE_LOOP ( 'NONE', ( #7, #165, #121, #228 ) ) ;
#136 = CARTESIAN_POINT ( 'NONE',  ( 0.000000000000000000, 0.000000000000000000, 7.000000000000000000 ) ) ;
#137 = EDGE_LOOP ( 'NONE', ( #91, #202 ) ) ;
#138 = ORIENTED_EDGE ( 'NONE', *, *, #134, .T. ) ;
#139 = CALENDAR_DATE ( 2023, 12, 2 ) ;
#140 = ADVANCED_BREP_SHAPE_REPRESENTATION ( 'accb', ( #111, #39 ), #195 ) ;
#141 = CARTESIAN_POINT ( 'NONE',  ( 0.000000000000000000, 0.000000000000000000, 7.000000000000000000 ) ) ;
#142 = CARTESIAN_POINT ( 'NONE',  ( 6.250000000000000000, 7.654042494670957606E-16, 7.000000000000000000 ) ) ;
#143 = ORIENTED_EDGE ( 'NONE', *, *, #33, .T. ) ;
#144 = PERSON_AND_ORGANIZATION ( #18, #152 ) ;
#145 = DIRECTION ( 'NONE',  ( 0.000000000000000000, 0.000000000000000000, 1.000000000000000000 ) ) ;
#146 = DESIGN_CONTEXT ( 'detailed design', #194, 'design' ) ;
#147 = DATE_AND_TIME ( #206, #130 ) ;
#148 = COORDINATED_UNIVERSAL_TIME_OFFSET ( 1, 0, .AHEAD. ) ;
#149 = EDGE_CURVE ( 'NONE', #94, #72, #22, .T. ) ;
#150 = PERSON_AND_ORGANIZATION ( #18, #152 ) ;
#151 = AXIS2_PLACEMENT_3D ( 'NONE', #172, #170, #128 ) ;
#152 = ORGANIZATION ( 'NEURÈENÝ', 'NEURÈENÝ', '' ) ;
#153 = ADVANCED_FACE ( 'NONE', ( #254 ), #209, .T. ) ;
#154 = DIRECTION ( 'NONE',  ( -1.000000000000000000, 0.000000000000000000, 0.000000000000000000 ) ) ;
#155 = DIRECTION ( 'NONE',  ( -0.000000000000000000, -0.000000000000000000, -1.000000000000000000 ) ) ;
#156 = ORIENTED_EDGE ( 'NONE', *, *, #220, .T. ) ;
#157 = AXIS2_PLACEMENT_3D ( 'NONE', #159, #244, #36 ) ;
#158 = PERSON_AND_ORGANIZATION ( #18, #152 ) ;
#159 = CARTESIAN_POINT ( 'NONE',  ( 0.000000000000000000, 0.000000000000000000, 250.0000000000000000 ) ) ;
#160 = APPROVAL_ROLE ( '' ) ;
#161 = VERTEX_POINT ( 'NONE', #168 ) ;
#162 = EDGE_CURVE ( 'NONE', #218, #83, #2, .T. ) ;
#163 = LINE ( 'NONE', #10, #253 ) ;
#164 = AXIS2_PLACEMENT_3D ( 'NONE', #232, #114, #73 ) ;
#165 = ORIENTED_EDGE ( 'NONE', *, *, #33, .F. ) ;
#166 = EDGE_CURVE ( 'NONE', #161, #180, #124, .T. ) ;
#167 = DIRECTION ( 'NONE',  ( 0.000000000000000000, 0.000000000000000000, 1.000000000000000000 ) ) ;
#168 = CARTESIAN_POINT ( 'NONE',  ( -9.000000000000000000, 0.000000000000000000, 0.000000000000000000 ) ) ;
#169 = PERSON_AND_ORGANIZATION_ROLE ( 'creator' ) ;
#170 = DIRECTION ( 'NONE',  ( 0.000000000000000000, 0.000000000000000000, 1.000000000000000000 ) ) ;
#171 = AXIS2_PLACEMENT_3D ( 'NONE', #141, #29, #197 ) ;
#172 = CARTESIAN_POINT ( 'NONE',  ( 0.000000000000000000, 0.000000000000000000, 7.000000000000000000 ) ) ;
#173 = DATE_TIME_ROLE ( 'classification_date' ) ;
#174 = DIRECTION ( 'NONE',  ( 0.000000000000000000, 0.000000000000000000, 1.000000000000000000 ) ) ;
#175 = VERTEX_POINT ( 'NONE', #142 ) ;
#176 = PRODUCT_DEFINITION ( 'NEZNÁMÝ', '', #108, #146 ) ;
#177 = APPLICATION_PROTOCOL_DEFINITION ( 'international standard', 'config_control_design', 1994, #194 ) ;
#178 = LOCAL_TIME ( 11, 55, 4.000000000000000000, #184 ) ;
#179 = DIRECTION ( 'NONE',  ( 1.000000000000000000, 0.000000000000000000, 0.000000000000000000 ) ) ;
#180 = VERTEX_POINT ( 'NONE', #252 ) ;
#181 = SHAPE_DEFINITION_REPRESENTATION ( #246, #140 ) ;
#182 = FACE_OUTER_BOUND ( 'NONE', #185, .T. ) ;
#183 = ORIENTED_EDGE ( 'NONE', *, *, #149, .T. ) ;
#184 = COORDINATED_UNIVERSAL_TIME_OFFSET ( 1, 0, .AHEAD. ) ;
#185 = EDGE_LOOP ( 'NONE', ( #110, #86, #65, #53 ) ) ;
#186 = ADVANCED_FACE ( 'NONE', ( #182 ), #245, .T. ) ;
#187 = AXIS2_PLACEMENT_3D ( 'NONE', #126, #32, #179 ) ;
#188 = DIRECTION ( 'NONE',  ( 1.000000000000000000, 0.000000000000000000, 0.000000000000000000 ) ) ;
#189 = CARTESIAN_POINT ( 'NONE',  ( 0.000000000000000000, 0.000000000000000000, 7.000000000000000000 ) ) ;
#190 = CC_DESIGN_APPROVAL ( #129, ( #176 ) ) ;
#191 = DIRECTION ( 'NONE',  ( -1.000000000000000000, 0.000000000000000000, 0.000000000000000000 ) ) ;
#192 =( LENGTH_UNIT ( ) NAMED_UNIT ( * ) SI_UNIT ( .MILLI., .METRE. ) );
#193 = APPROVAL_PERSON_ORGANIZATION ( #158, #129, #160 ) ;
#194 = APPLICATION_CONTEXT ( 'configuration controlled 3d designs of mechanical parts and assemblies' ) ;
#195 =( GEOMETRIC_REPRESENTATION_CONTEXT ( 3 ) GLOBAL_UNCERTAINTY_ASSIGNED_CONTEXT ( ( #95 ) ) GLOBAL_UNIT_ASSIGNED_CONTEXT ( ( #192, #41, #24 ) ) REPRESENTATION_CONTEXT ( 'NONE', 'WORKASPACE' ) );
#196 = PERSON_AND_ORGANIZATION ( #18, #152 ) ;
#197 = DIRECTION ( 'NONE',  ( 1.000000000000000000, 0.000000000000000000, 0.000000000000000000 ) ) ;
#198 = DIRECTION ( 'NONE',  ( -0.000000000000000000, -0.000000000000000000, -1.000000000000000000 ) ) ;
#199 = EDGE_LOOP ( 'NONE', ( #238, #221, #107, #103 ) ) ;
#200 = DIRECTION ( 'NONE',  ( -0.000000000000000000, -0.000000000000000000, -1.000000000000000000 ) ) ;
#201 = EDGE_CURVE ( 'NONE', #83, #161, #132, .T. ) ;
#202 = ORIENTED_EDGE ( 'NONE', *, *, #15, .F. ) ;
#203 = DIRECTION ( 'NONE',  ( 1.000000000000000000, 0.000000000000000000, 0.000000000000000000 ) ) ;
#204 = APPROVAL_PERSON_ORGANIZATION ( #150, #237, #45 ) ;
#205 = FACE_OUTER_BOUND ( 'NONE', #69, .T. ) ;
#206 = CALENDAR_DATE ( 2023, 12, 2 ) ;
#207 = FACE_BOUND ( 'NONE', #137, .T. ) ;
#208 = APPROVAL_PERSON_ORGANIZATION ( #223, #55, #229 ) ;
#209 = CYLINDRICAL_SURFACE ( 'NONE', #75, 9.000000000000000000 ) ;
#210 = CARTESIAN_POINT ( 'NONE',  ( 9.000000000000000000, 1.102182119232617714E-15, 7.000000000000000000 ) ) ;
#211 = AXIS2_PLACEMENT_3D ( 'NONE', #240, #133, #82 ) ;
#212 = ORIENTED_EDGE ( 'NONE', *, *, #162, .F. ) ;
#213 = APPROVAL_STATUS ( 'not_yet_approved' ) ;
#214 = DATE_AND_TIME ( #47, #249 ) ;
#215 = DIRECTION ( 'NONE',  ( 0.000000000000000000, 0.000000000000000000, 1.000000000000000000 ) ) ;
#216 = CARTESIAN_POINT ( 'NONE',  ( 0.000000000000000000, 0.000000000000000000, 250.0000000000000000 ) ) ;
#217 = ADVANCED_FACE ( 'NONE', ( #48 ), #5, .T. ) ;
#218 = VERTEX_POINT ( 'NONE', #120 ) ;
#219 = AXIS2_PLACEMENT_3D ( 'NONE', #189, #99, #37 ) ;
#220 = EDGE_CURVE ( 'NONE', #218, #180, #87, .T. ) ;
#221 = ORIENTED_EDGE ( 'NONE', *, *, #134, .F. ) ;
#222 = VECTOR ( 'NONE', #155, 1000.000000000000000 ) ;
#223 = PERSON_AND_ORGANIZATION ( #18, #152 ) ;
#224 = DIRECTION ( 'NONE',  ( 0.000000000000000000, 0.000000000000000000, 1.000000000000000000 ) ) ;
#225 = PLANE ( 'NONE',  #235 ) ;
#226 = CIRCLE ( 'NONE', #79, 9.000000000000000000 ) ;
#227 = LOCAL_TIME ( 11, 55, 4.000000000000000000, #64 ) ;
#228 = ORIENTED_EDGE ( 'NONE', *, *, #112, .T. ) ;
#229 = APPROVAL_ROLE ( '' ) ;
#230 = DIRECTION ( 'NONE',  ( 1.000000000000000000, 0.000000000000000000, -0.000000000000000000 ) ) ;
#231 = EDGE_CURVE ( 'NONE', #94, #175, #243, .T. ) ;
#232 = CARTESIAN_POINT ( 'NONE',  ( 0.000000000000000000, 0.000000000000000000, 250.0000000000000000 ) ) ;
#233 = CC_DESIGN_APPROVAL ( #237, ( #27 ) ) ;
#234 = CALENDAR_DATE ( 2023, 12, 2 ) ;
#235 = AXIS2_PLACEMENT_3D ( 'NONE', #113, #57, #230 ) ;
#236 = EDGE_LOOP ( 'NONE', ( #143, #183 ) ) ;
#237 = APPROVAL ( #213, 'NEURÈENÝ' ) ;
#238 = ORIENTED_EDGE ( 'NONE', *, *, #220, .F. ) ;
#239 = PERSON_AND_ORGANIZATION_ROLE ( 'classification_officer' ) ;
#240 = CARTESIAN_POINT ( 'NONE',  ( 0.000000000000000000, 0.000000000000000000, 250.0000000000000000 ) ) ;
#241 = CC_DESIGN_PERSON_AND_ORGANIZATION_ASSIGNMENT ( #101, #97, ( #108 ) ) ;
#242 = EDGE_LOOP ( 'NONE', ( #138, #105 ) ) ;
#243 = LINE ( 'NONE', #40, #16 ) ;
#244 = DIRECTION ( 'NONE',  ( -0.000000000000000000, -0.000000000000000000, -1.000000000000000000 ) ) ;
#245 = CYLINDRICAL_SURFACE ( 'NONE', #211, 6.250000000000000000 ) ;
#246 = PRODUCT_DEFINITION_SHAPE ( 'NONE', 'NONE',  #176 ) ;
#247 = FACE_OUTER_BOUND ( 'NONE', #236, .T. ) ;
#248 = DATE_AND_TIME ( #9, #178 ) ;
#249 = LOCAL_TIME ( 11, 55, 4.000000000000000000, #63 ) ;
#250 = ORIENTED_EDGE ( 'NONE', *, *, #201, .F. ) ;
#251 = DIRECTION ( 'NONE',  ( 1.000000000000000000, 0.000000000000000000, 0.000000000000000000 ) ) ;
#252 = CARTESIAN_POINT ( 'NONE',  ( 9.000000000000000000, 1.102182119232617714E-15, 0.000000000000000000 ) ) ;
#253 = VECTOR ( 'NONE', #200, 1000.000000000000000 ) ;
#254 = FACE_OUTER_BOUND ( 'NONE', #88, .T. ) ;
#255 = PERSON_AND_ORGANIZATION_ROLE ( 'design_supplier' ) ;
ENDSEC;
END-ISO-10303-21;
