ISO-10303-21;
HEADER;
FILE_DESCRIPTION (( 'STEP AP203' ),
    '1' );
FILE_NAME ('9e96.STEP',
    '2023-02-12T10:45:06',
    ( '' ),
    ( '' ),
    'SwSTEP 2.0',
    'SolidWorks 2019',
    '' );
FILE_SCHEMA (( 'CONFIG_CONTROL_DESIGN' ));
ENDSEC;

DATA;
#1 = LOCAL_TIME ( 11, 45, 6.000000000000000000, #63 ) ;
#2 = PERSON_AND_ORGANIZATION_ROLE ( 'creator' ) ;
#3 = CARTESIAN_POINT ( 'NONE',  ( 0.000000000000000000, 0.000000000000000000, 7.000000000000000000 ) ) ;
#4 = APPROVAL_PERSON_ORGANIZATION ( #98, #9, #81 ) ;
#5 = PERSON_AND_ORGANIZATION ( #55, #232 ) ;
#6 = CARTESIAN_POINT ( 'NONE',  ( 11.00000000000000000, 1.347111479062088405E-15, 7.000000000000000000 ) ) ;
#7 = CARTESIAN_POINT ( 'NONE',  ( 0.000000000000000000, 0.000000000000000000, 0.000000000000000000 ) ) ;
#8 = ORIENTED_EDGE ( 'NONE', *, *, #44, .F. ) ;
#9 = APPROVAL ( #242, 'NEURÈENÝ' ) ;
#10 = ORIENTED_EDGE ( 'NONE', *, *, #88, .T. ) ;
#11 = DIRECTION ( 'NONE',  ( 1.000000000000000000, 0.000000000000000000, 0.000000000000000000 ) ) ;
#12 = CARTESIAN_POINT ( 'NONE',  ( 0.000000000000000000, 0.000000000000000000, 0.000000000000000000 ) ) ;
#13 = CARTESIAN_POINT ( 'NONE',  ( 0.000000000000000000, 0.000000000000000000, 1200.000000000000000 ) ) ;
#14 = DESIGN_CONTEXT ( 'detailed design', #127, 'design' ) ;
#15 = CYLINDRICAL_SURFACE ( 'NONE', #155, 11.00000000000000000 ) ;
#16 = FACE_OUTER_BOUND ( 'NONE', #209, .T. ) ;
#17 = APPROVAL ( #20, 'NEURÈENÝ' ) ;
#18 = ORIENTED_EDGE ( 'NONE', *, *, #76, .F. ) ;
#19 = ADVANCED_FACE ( 'NONE', ( #215, #245 ), #46, .T. ) ;
#20 = APPROVAL_STATUS ( 'not_yet_approved' ) ;
#21 = VERTEX_POINT ( 'NONE', #244 ) ;
#22 = AXIS2_PLACEMENT_3D ( 'NONE', #7, #29, #213 ) ;
#23 = EDGE_LOOP ( 'NONE', ( #197, #47 ) ) ;
#24 = VECTOR ( 'NONE', #130, 1000.000000000000000 ) ;
#25 = LOCAL_TIME ( 11, 45, 6.000000000000000000, #26 ) ;
#26 = COORDINATED_UNIVERSAL_TIME_OFFSET ( 1, 0, .AHEAD. ) ;
#27 = VERTEX_POINT ( 'NONE', #110 ) ;
#28 = ORIENTED_EDGE ( 'NONE', *, *, #187, .F. ) ;
#29 = DIRECTION ( 'NONE',  ( 0.000000000000000000, 0.000000000000000000, 1.000000000000000000 ) ) ;
#30 = DIRECTION ( 'NONE',  ( 1.000000000000000000, 0.000000000000000000, -0.000000000000000000 ) ) ;
#31 = CARTESIAN_POINT ( 'NONE',  ( 0.000000000000000000, 0.000000000000000000, 7.000000000000000000 ) ) ;
#32 = DIRECTION ( 'NONE',  ( -0.000000000000000000, -0.000000000000000000, -1.000000000000000000 ) ) ;
#33 = VECTOR ( 'NONE', #69, 1000.000000000000000 ) ;
#34 = CARTESIAN_POINT ( 'NONE',  ( 0.000000000000000000, 0.000000000000000000, 1200.000000000000000 ) ) ;
#35 = CYLINDRICAL_SURFACE ( 'NONE', #109, 7.000000000000000888 ) ;
#36 = APPROVAL_ROLE ( '' ) ;
#37 = APPLICATION_PROTOCOL_DEFINITION ( 'international standard', 'config_control_design', 1994, #127 ) ;
#38 = LOCAL_TIME ( 11, 45, 6.000000000000000000, #61 ) ;
#39 = CC_DESIGN_DATE_AND_TIME_ASSIGNMENT ( #50, #84, ( #225 ) ) ;
#40 = CALENDAR_DATE ( 2023, 12, 2 ) ;
#41 = APPROVAL_DATE_TIME ( #159, #9 ) ;
#42 = VECTOR ( 'NONE', #32, 1000.000000000000000 ) ;
#43 = EDGE_LOOP ( 'NONE', ( #122, #51, #10, #198 ) ) ;
#44 = EDGE_CURVE ( 'NONE', #168, #203, #153, .T. ) ;
#45 = DIRECTION ( 'NONE',  ( 1.000000000000000000, 0.000000000000000000, -0.000000000000000000 ) ) ;
#46 = PLANE ( 'NONE',  #223 ) ;
#47 = ORIENTED_EDGE ( 'NONE', *, *, #131, .T. ) ;
#48 = CIRCLE ( 'NONE', #160, 11.00000000000000000 ) ;
#49 = ADVANCED_FACE ( 'NONE', ( #120 ), #103, .T. ) ;
#50 = DATE_AND_TIME ( #105, #25 ) ;
#51 = ORIENTED_EDGE ( 'NONE', *, *, #180, .F. ) ;
#52 = ORIENTED_EDGE ( 'NONE', *, *, #187, .T. ) ;
#53 = FACE_OUTER_BOUND ( 'NONE', #107, .T. ) ;
#54 = DIRECTION ( 'NONE',  ( 1.000000000000000000, 0.000000000000000000, 0.000000000000000000 ) ) ;
#55 = PERSON ( 'NEURÈENÝ', 'NEURÈENÝ', 'NEURÈENÝ', ('NEURÈENÝ'), ('NEURÈENÝ'), ('NEURÈENÝ') ) ;
#56 = DIRECTION ( 'NONE',  ( -0.000000000000000000, -0.000000000000000000, -1.000000000000000000 ) ) ;
#57 = CARTESIAN_POINT ( 'NONE',  ( -11.00000000000000000, 0.000000000000000000, 7.000000000000000000 ) ) ;
#58 = PRODUCT_DEFINITION ( 'NEZNÁMÝ', '', #97, #14 ) ;
#59 = DATE_AND_TIME ( #156, #216 ) ;
#60 = EDGE_CURVE ( 'NONE', #108, #168, #68, .T. ) ;
#61 = COORDINATED_UNIVERSAL_TIME_OFFSET ( 1, 0, .AHEAD. ) ;
#62 = CC_DESIGN_APPROVAL ( #17, ( #225 ) ) ;
#63 = COORDINATED_UNIVERSAL_TIME_OFFSET ( 1, 0, .AHEAD. ) ;
#64 = MANIFOLD_SOLID_BREP ( 'Pøidat vysunutím3', #201 ) ;
#65 = SECURITY_CLASSIFICATION_LEVEL ( 'unclassified' ) ;
#66 = EDGE_CURVE ( 'NONE', #108, #27, #241, .T. ) ;
#67 = CC_DESIGN_APPROVAL ( #9, ( #58 ) ) ;
#68 = LINE ( 'NONE', #6, #33 ) ;
#69 = DIRECTION ( 'NONE',  ( -0.000000000000000000, -0.000000000000000000, -1.000000000000000000 ) ) ;
#70 = SHAPE_DEFINITION_REPRESENTATION ( #185, #193 ) ;
#71 = DIRECTION ( 'NONE',  ( 1.000000000000000000, 0.000000000000000000, 0.000000000000000000 ) ) ;
#72 = ORIENTED_EDGE ( 'NONE', *, *, #208, .T. ) ;
#73 = ORIENTED_EDGE ( 'NONE', *, *, #208, .F. ) ;
#74 = CARTESIAN_POINT ( 'NONE',  ( 7.000000000000000888, 8.572527594031474176E-16, 7.000000000000000000 ) ) ;
#75 = DIRECTION ( 'NONE',  ( 0.000000000000000000, 0.000000000000000000, 1.000000000000000000 ) ) ;
#76 = EDGE_CURVE ( 'NONE', #145, #234, #181, .T. ) ;
#77 = DIRECTION ( 'NONE',  ( 1.000000000000000000, 0.000000000000000000, 0.000000000000000000 ) ) ;
#78 = AXIS2_PLACEMENT_3D ( 'NONE', #219, #75, #11 ) ;
#79 = AXIS2_PLACEMENT_3D ( 'NONE', #13, #202, #30 ) ;
#80 =( GEOMETRIC_REPRESENTATION_CONTEXT ( 3 ) GLOBAL_UNCERTAINTY_ASSIGNED_CONTEXT ( ( #214 ) ) GLOBAL_UNIT_ASSIGNED_CONTEXT ( ( #251, #237, #218 ) ) REPRESENTATION_CONTEXT ( 'NONE', 'WORKASPACE' ) );
#81 = APPROVAL_ROLE ( '' ) ;
#82 = AXIS2_PLACEMENT_3D ( 'NONE', #91, #200, #77 ) ;
#83 = EDGE_LOOP ( 'NONE', ( #18, #28 ) ) ;
#84 = DATE_TIME_ROLE ( 'classification_date' ) ;
#85 = ORIENTED_EDGE ( 'NONE', *, *, #76, .T. ) ;
#86 = COORDINATED_UNIVERSAL_TIME_OFFSET ( 1, 0, .AHEAD. ) ;
#87 = CARTESIAN_POINT ( 'NONE',  ( 0.000000000000000000, 0.000000000000000000, 7.000000000000000000 ) ) ;
#88 = EDGE_CURVE ( 'NONE', #27, #203, #143, .T. ) ;
#89 = CARTESIAN_POINT ( 'NONE',  ( 0.000000000000000000, 0.000000000000000000, 7.000000000000000000 ) ) ;
#90 = PERSON_AND_ORGANIZATION_ROLE ( 'creator' ) ;
#91 = CARTESIAN_POINT ( 'NONE',  ( 0.000000000000000000, 0.000000000000000000, 7.000000000000000000 ) ) ;
#92 = CARTESIAN_POINT ( 'NONE',  ( -7.000000000000000888, 0.000000000000000000, 1200.000000000000000 ) ) ;
#93 = DIRECTION ( 'NONE',  ( 0.000000000000000000, 0.000000000000000000, 1.000000000000000000 ) ) ;
#94 = DIRECTION ( 'NONE',  ( 0.000000000000000000, 0.000000000000000000, 1.000000000000000000 ) ) ;
#95 = CIRCLE ( 'NONE', #236, 11.00000000000000000 ) ;
#96 = CC_DESIGN_PERSON_AND_ORGANIZATION_ASSIGNMENT ( #141, #90, ( #58 ) ) ;
#97 = PRODUCT_DEFINITION_FORMATION_WITH_SPECIFIED_SOURCE ( 'LIBOVOLNÝ', '', #194, .NOT_KNOWN. ) ;
#98 = PERSON_AND_ORGANIZATION ( #55, #232 ) ;
#99 = DIRECTION ( 'NONE',  ( 1.000000000000000000, 0.000000000000000000, 0.000000000000000000 ) ) ;
#100 = CARTESIAN_POINT ( 'NONE',  ( 0.000000000000000000, 0.000000000000000000, 0.000000000000000000 ) ) ;
#101 = CC_DESIGN_PERSON_AND_ORGANIZATION_ASSIGNMENT ( #135, #136, ( #194 ) ) ;
#102 = PERSON_AND_ORGANIZATION ( #55, #232 ) ;
#103 = CYLINDRICAL_SURFACE ( 'NONE', #206, 11.00000000000000000 ) ;
#104 = CC_DESIGN_PERSON_AND_ORGANIZATION_ASSIGNMENT ( #5, #196, ( #97 ) ) ;
#105 = CALENDAR_DATE ( 2023, 12, 2 ) ;
#106 = DIRECTION ( 'NONE',  ( 0.000000000000000000, 0.000000000000000000, 1.000000000000000000 ) ) ;
#107 = EDGE_LOOP ( 'NONE', ( #229, #8 ) ) ;
#108 = VERTEX_POINT ( 'NONE', #147 ) ;
#109 = AXIS2_PLACEMENT_3D ( 'NONE', #175, #56, #217 ) ;
#110 = CARTESIAN_POINT ( 'NONE',  ( -11.00000000000000000, 0.000000000000000000, 7.000000000000000000 ) ) ;
#111 = ADVANCED_FACE ( 'NONE', ( #16 ), #35, .T. ) ;
#112 = LINE ( 'NONE', #92, #24 ) ;
#113 = DIRECTION ( 'NONE',  ( 0.000000000000000000, 0.000000000000000000, 1.000000000000000000 ) ) ;
#114 = DIRECTION ( 'NONE',  ( -1.000000000000000000, 0.000000000000000000, 0.000000000000000000 ) ) ;
#115 = CARTESIAN_POINT ( 'NONE',  ( 0.000000000000000000, 0.000000000000000000, 0.000000000000000000 ) ) ;
#116 = DIRECTION ( 'NONE',  ( -1.000000000000000000, 0.000000000000000000, 0.000000000000000000 ) ) ;
#117 = MECHANICAL_CONTEXT ( 'NONE', #255, 'mechanical' ) ;
#118 = APPLICATION_PROTOCOL_DEFINITION ( 'international standard', 'config_control_design', 1994, #255 ) ;
#119 = CC_DESIGN_PERSON_AND_ORGANIZATION_ASSIGNMENT ( #144, #167, ( #225 ) ) ;
#120 = FACE_OUTER_BOUND ( 'NONE', #137, .T. ) ;
#121 = EDGE_CURVE ( 'NONE', #231, #21, #138, .T. ) ;
#122 = ORIENTED_EDGE ( 'NONE', *, *, #60, .F. ) ;
#123 = DIRECTION ( 'NONE',  ( 0.000000000000000000, 0.000000000000000000, 1.000000000000000000 ) ) ;
#124 = CALENDAR_DATE ( 2023, 12, 2 ) ;
#125 = DIRECTION ( 'NONE',  ( -0.000000000000000000, -0.000000000000000000, -1.000000000000000000 ) ) ;
#126 = ORIENTED_EDGE ( 'NONE', *, *, #44, .T. ) ;
#127 = APPLICATION_CONTEXT ( 'configuration controlled 3d designs of mechanical parts and assemblies' ) ;
#128 = DIRECTION ( 'NONE',  ( 1.000000000000000000, 0.000000000000000000, 0.000000000000000000 ) ) ;
#129 = AXIS2_PLACEMENT_3D ( 'NONE', #115, #176, #178 ) ;
#130 = DIRECTION ( 'NONE',  ( -0.000000000000000000, -0.000000000000000000, -1.000000000000000000 ) ) ;
#131 = EDGE_CURVE ( 'NONE', #21, #231, #253, .T. ) ;
#132 = CARTESIAN_POINT ( 'NONE',  ( 0.000000000000000000, 0.000000000000000000, 1200.000000000000000 ) ) ;
#133 = EDGE_CURVE ( 'NONE', #203, #168, #95, .T. ) ;
#134 = PERSON_AND_ORGANIZATION ( #55, #232 ) ;
#135 = PERSON_AND_ORGANIZATION ( #55, #232 ) ;
#136 = PERSON_AND_ORGANIZATION_ROLE ( 'design_owner' ) ;
#137 = EDGE_LOOP ( 'NONE', ( #186, #161, #126, #152 ) ) ;
#138 = CIRCLE ( 'NONE', #78, 7.000000000000000888 ) ;
#139 = ADVANCED_FACE ( 'NONE', ( #53 ), #254, .F. ) ;
#140 = ORIENTED_EDGE ( 'NONE', *, *, #66, .T. ) ;
#141 = PERSON_AND_ORGANIZATION ( #55, #232 ) ;
#142 = CARTESIAN_POINT ( 'NONE',  ( 0.000000000000000000, 0.000000000000000000, 7.000000000000000000 ) ) ;
#143 = LINE ( 'NONE', #57, #42 ) ;
#144 = PERSON_AND_ORGANIZATION ( #55, #232 ) ;
#145 = VERTEX_POINT ( 'NONE', #146 ) ;
#146 = CARTESIAN_POINT ( 'NONE',  ( -7.000000000000000888, 0.000000000000000000, 7.000000000000000000 ) ) ;
#147 = CARTESIAN_POINT ( 'NONE',  ( 11.00000000000000000, 1.347111479062088405E-15, 7.000000000000000000 ) ) ;
#148 = ADVANCED_FACE ( 'NONE', ( #204 ), #15, .T. ) ;
#149 = APPROVAL_PERSON_ORGANIZATION ( #134, #207, #36 ) ;
#150 = CARTESIAN_POINT ( 'NONE',  ( -7.000000000000000888, 0.000000000000000000, 1200.000000000000000 ) ) ;
#151 = FACE_OUTER_BOUND ( 'NONE', #248, .T. ) ;
#152 = ORIENTED_EDGE ( 'NONE', *, *, #88, .F. ) ;
#153 = CIRCLE ( 'NONE', #22, 11.00000000000000000 ) ;
#154 = CARTESIAN_POINT ( 'NONE',  ( -11.00000000000000000, 0.000000000000000000, 0.000000000000000000 ) ) ;
#155 = AXIS2_PLACEMENT_3D ( 'NONE', #89, #221, #114 ) ;
#156 = CALENDAR_DATE ( 2023, 12, 2 ) ;
#157 = AXIS2_PLACEMENT_3D ( 'NONE', #142, #123, #164 ) ;
#158 = ADVANCED_FACE ( 'NONE', ( #151 ), #170, .T. ) ;
#159 = DATE_AND_TIME ( #227, #1 ) ;
#160 = AXIS2_PLACEMENT_3D ( 'NONE', #31, #93, #128 ) ;
#161 = ORIENTED_EDGE ( 'NONE', *, *, #60, .T. ) ;
#162 = DATE_AND_TIME ( #124, #174 ) ;
#163 = EDGE_LOOP ( 'NONE', ( #169, #140 ) ) ;
#164 = DIRECTION ( 'NONE',  ( 1.000000000000000000, 0.000000000000000000, 0.000000000000000000 ) ) ;
#165 = CC_DESIGN_DATE_AND_TIME_ASSIGNMENT ( #59, #226, ( #58 ) ) ;
#166 = AXIS2_PLACEMENT_3D ( 'NONE', #212, #247, #71 ) ;
#167 = PERSON_AND_ORGANIZATION_ROLE ( 'classification_officer' ) ;
#168 = VERTEX_POINT ( 'NONE', #252 ) ;
#169 = ORIENTED_EDGE ( 'NONE', *, *, #180, .T. ) ;
#170 = CYLINDRICAL_SURFACE ( 'NONE', #182, 7.000000000000000888 ) ;
#171 = COORDINATED_UNIVERSAL_TIME_OFFSET ( 1, 0, .AHEAD. ) ;
#172 = FACE_OUTER_BOUND ( 'NONE', #23, .T. ) ;
#173 = CIRCLE ( 'NONE', #82, 7.000000000000000888 ) ;
#174 = LOCAL_TIME ( 11, 45, 6.000000000000000000, #86 ) ;
#175 = CARTESIAN_POINT ( 'NONE',  ( 0.000000000000000000, 0.000000000000000000, 1200.000000000000000 ) ) ;
#176 = DIRECTION ( 'NONE',  ( 0.000000000000000000, 0.000000000000000000, 1.000000000000000000 ) ) ;
#177 = AXIS2_PLACEMENT_3D ( 'NONE', #34, #94, #54 ) ;
#178 = DIRECTION ( 'NONE',  ( 1.000000000000000000, 0.000000000000000000, -0.000000000000000000 ) ) ;
#179 = AXIS2_PLACEMENT_3D ( 'NONE', #100, #183, #99 ) ;
#180 = EDGE_CURVE ( 'NONE', #27, #108, #48, .T. ) ;
#181 = CIRCLE ( 'NONE', #166, 7.000000000000000888 ) ;
#182 = AXIS2_PLACEMENT_3D ( 'NONE', #132, #235, #116 ) ;
#183 = DIRECTION ( 'NONE',  ( 0.000000000000000000, 0.000000000000000000, 1.000000000000000000 ) ) ;
#184 = APPROVAL_ROLE ( '' ) ;
#185 = PRODUCT_DEFINITION_SHAPE ( 'NONE', 'NONE',  #58 ) ;
#186 = ORIENTED_EDGE ( 'NONE', *, *, #66, .F. ) ;
#187 = EDGE_CURVE ( 'NONE', #234, #145, #173, .T. ) ;
#188 = ORIENTED_EDGE ( 'NONE', *, *, #230, .F. ) ;
#189 = APPROVAL_DATE_TIME ( #243, #207 ) ;
#190 = CC_DESIGN_APPROVAL ( #207, ( #97 ) ) ;
#191 = DIRECTION ( 'NONE',  ( -1.000000000000000000, 0.000000000000000000, 0.000000000000000000 ) ) ;
#192 = PERSON_AND_ORGANIZATION ( #55, #232 ) ;
#193 = ADVANCED_BREP_SHAPE_REPRESENTATION ( '9e96', ( #64, #179 ), #80 ) ;
#194 = PRODUCT ( '9e96', '9e96', '', ( #117 ) ) ;
#195 = ORIENTED_EDGE ( 'NONE', *, *, #121, .F. ) ;
#196 = PERSON_AND_ORGANIZATION_ROLE ( 'design_supplier' ) ;
#197 = ORIENTED_EDGE ( 'NONE', *, *, #121, .T. ) ;
#198 = ORIENTED_EDGE ( 'NONE', *, *, #133, .T. ) ;
#199 = CARTESIAN_POINT ( 'NONE',  ( 7.000000000000000888, 8.572527594031474176E-16, 1200.000000000000000 ) ) ;
#200 = DIRECTION ( 'NONE',  ( 0.000000000000000000, 0.000000000000000000, 1.000000000000000000 ) ) ;
#201 = CLOSED_SHELL ( 'NONE', ( #111, #49, #148, #19, #139, #158, #205 ) ) ;
#202 = DIRECTION ( 'NONE',  ( 0.000000000000000000, 0.000000000000000000, 1.000000000000000000 ) ) ;
#203 = VERTEX_POINT ( 'NONE', #154 ) ;
#204 = FACE_OUTER_BOUND ( 'NONE', #43, .T. ) ;
#205 = ADVANCED_FACE ( 'NONE', ( #172 ), #239, .T. ) ;
#206 = AXIS2_PLACEMENT_3D ( 'NONE', #3, #125, #191 ) ;
#207 = APPROVAL ( #224, 'NEURÈENÝ' ) ;
#208 = EDGE_CURVE ( 'NONE', #21, #234, #249, .T. ) ;
#209 = EDGE_LOOP ( 'NONE', ( #233, #72, #52, #188 ) ) ;
#210 = ORIENTED_EDGE ( 'NONE', *, *, #230, .T. ) ;
#211 = CC_DESIGN_SECURITY_CLASSIFICATION ( #225, ( #97 ) ) ;
#212 = CARTESIAN_POINT ( 'NONE',  ( 0.000000000000000000, 0.000000000000000000, 7.000000000000000000 ) ) ;
#213 = DIRECTION ( 'NONE',  ( 1.000000000000000000, 0.000000000000000000, 0.000000000000000000 ) ) ;
#214 = UNCERTAINTY_MEASURE_WITH_UNIT (LENGTH_MEASURE( 1.000000000000000082E-05 ), #251, 'distance_accuracy_value', 'NONE');
#215 = FACE_BOUND ( 'NONE', #83, .T. ) ;
#216 = LOCAL_TIME ( 11, 45, 6.000000000000000000, #171 ) ;
#217 = DIRECTION ( 'NONE',  ( -1.000000000000000000, 0.000000000000000000, 0.000000000000000000 ) ) ;
#218 =( NAMED_UNIT ( * ) SI_UNIT ( $, .STERADIAN. ) SOLID_ANGLE_UNIT ( ) );
#219 = CARTESIAN_POINT ( 'NONE',  ( 0.000000000000000000, 0.000000000000000000, 1200.000000000000000 ) ) ;
#220 = DIRECTION ( 'NONE',  ( 1.000000000000000000, 0.000000000000000000, 0.000000000000000000 ) ) ;
#221 = DIRECTION ( 'NONE',  ( -0.000000000000000000, -0.000000000000000000, -1.000000000000000000 ) ) ;
#222 = CC_DESIGN_PERSON_AND_ORGANIZATION_ASSIGNMENT ( #192, #2, ( #97 ) ) ;
#223 = AXIS2_PLACEMENT_3D ( 'NONE', #87, #106, #45 ) ;
#224 = APPROVAL_STATUS ( 'not_yet_approved' ) ;
#225 = SECURITY_CLASSIFICATION ( '', '', #65 ) ;
#226 = DATE_TIME_ROLE ( 'creation_date' ) ;
#227 = CALENDAR_DATE ( 2023, 12, 2 ) ;
#228 = VECTOR ( 'NONE', #238, 1000.000000000000000 ) ;
#229 = ORIENTED_EDGE ( 'NONE', *, *, #133, .F. ) ;
#230 = EDGE_CURVE ( 'NONE', #231, #145, #112, .T. ) ;
#231 = VERTEX_POINT ( 'NONE', #150 ) ;
#232 = ORGANIZATION ( 'NEURÈENÝ', 'NEURÈENÝ', '' ) ;
#233 = ORIENTED_EDGE ( 'NONE', *, *, #131, .F. ) ;
#234 = VERTEX_POINT ( 'NONE', #74 ) ;
#235 = DIRECTION ( 'NONE',  ( -0.000000000000000000, -0.000000000000000000, -1.000000000000000000 ) ) ;
#236 = AXIS2_PLACEMENT_3D ( 'NONE', #12, #113, #220 ) ;
#237 =( NAMED_UNIT ( * ) PLANE_ANGLE_UNIT ( ) SI_UNIT ( $, .RADIAN. ) );
#238 = DIRECTION ( 'NONE',  ( -0.000000000000000000, -0.000000000000000000, -1.000000000000000000 ) ) ;
#239 = PLANE ( 'NONE',  #79 ) ;
#240 = PRODUCT_RELATED_PRODUCT_CATEGORY ( 'detail', '', ( #194 ) ) ;
#241 = CIRCLE ( 'NONE', #157, 11.00000000000000000 ) ;
#242 = APPROVAL_STATUS ( 'not_yet_approved' ) ;
#243 = DATE_AND_TIME ( #40, #38 ) ;
#244 = CARTESIAN_POINT ( 'NONE',  ( 7.000000000000000888, 8.572527594031474176E-16, 1200.000000000000000 ) ) ;
#245 = FACE_OUTER_BOUND ( 'NONE', #163, .T. ) ;
#246 = APPROVAL_DATE_TIME ( #162, #17 ) ;
#247 = DIRECTION ( 'NONE',  ( 0.000000000000000000, 0.000000000000000000, 1.000000000000000000 ) ) ;
#248 = EDGE_LOOP ( 'NONE', ( #73, #195, #210, #85 ) ) ;
#249 = LINE ( 'NONE', #199, #228 ) ;
#250 = APPROVAL_PERSON_ORGANIZATION ( #102, #17, #184 ) ;
#251 =( LENGTH_UNIT ( ) NAMED_UNIT ( * ) SI_UNIT ( .MILLI., .METRE. ) );
#252 = CARTESIAN_POINT ( 'NONE',  ( 11.00000000000000000, 1.347111479062088405E-15, 0.000000000000000000 ) ) ;
#253 = CIRCLE ( 'NONE', #177, 7.000000000000000888 ) ;
#254 = PLANE ( 'NONE',  #129 ) ;
#255 = APPLICATION_CONTEXT ( 'configuration controlled 3d designs of mechanical parts and assemblies' ) ;
ENDSEC;
END-ISO-10303-21;
