ISO-10303-21;
HEADER;
FILE_DESCRIPTION (( 'STEP AP203' ),
    '1' );
FILE_NAME ('a5af.STEP',
    '2023-02-12T12:28:15',
    ( '' ),
    ( '' ),
    'SwSTEP 2.0',
    'SolidWorks 2019',
    '' );
FILE_SCHEMA (( 'CONFIG_CONTROL_DESIGN' ));
ENDSEC;

DATA;
#1 = CC_DESIGN_PERSON_AND_ORGANIZATION_ASSIGNMENT ( #97, #254, ( #124 ) ) ;
#2 = CARTESIAN_POINT ( 'NONE',  ( 5.000000000000000000, 6.123233995736766282E-16, 3.000000000000000000 ) ) ;
#3 = PERSON_AND_ORGANIZATION ( #106, #212 ) ;
#4 = AXIS2_PLACEMENT_3D ( 'NONE', #16, #216, #168 ) ;
#5 = EDGE_LOOP ( 'NONE', ( #43, #154, #183, #73 ) ) ;
#6 = PRODUCT_DEFINITION_SHAPE ( 'NONE', 'NONE',  #32 ) ;
#7 = EDGE_CURVE ( 'NONE', #251, #102, #217, .T. ) ;
#8 = APPROVAL_STATUS ( 'not_yet_approved' ) ;
#9 = DATE_AND_TIME ( #123, #222 ) ;
#10 = EDGE_CURVE ( 'NONE', #99, #251, #90, .T. ) ;
#11 = VERTEX_POINT ( 'NONE', #219 ) ;
#12 = APPROVAL_PERSON_ORGANIZATION ( #244, #250, #120 ) ;
#13 = AXIS2_PLACEMENT_3D ( 'NONE', #146, #67, #143 ) ;
#14 = CARTESIAN_POINT ( 'NONE',  ( -2.600000000000000089, 0.000000000000000000, 125.0000000000000000 ) ) ;
#15 = DIRECTION ( 'NONE',  ( 1.000000000000000000, 0.000000000000000000, 0.000000000000000000 ) ) ;
#16 = CARTESIAN_POINT ( 'NONE',  ( 0.000000000000000000, 0.000000000000000000, 125.0000000000000000 ) ) ;
#17 = PERSON_AND_ORGANIZATION_ROLE ( 'creator' ) ;
#18 = LINE ( 'NONE', #252, #125 ) ;
#19 =( NAMED_UNIT ( * ) SI_UNIT ( $, .STERADIAN. ) SOLID_ANGLE_UNIT ( ) );
#20 = AXIS2_PLACEMENT_3D ( 'NONE', #104, #28, #138 ) ;
#21 = CARTESIAN_POINT ( 'NONE',  ( 0.000000000000000000, 0.000000000000000000, 3.000000000000000000 ) ) ;
#22 = VERTEX_POINT ( 'NONE', #237 ) ;
#23 = APPROVAL_STATUS ( 'not_yet_approved' ) ;
#24 = EDGE_LOOP ( 'NONE', ( #167, #91 ) ) ;
#25 = EDGE_LOOP ( 'NONE', ( #227, #224, #161, #202 ) ) ;
#26 = CARTESIAN_POINT ( 'NONE',  ( -5.000000000000000000, 0.000000000000000000, 3.000000000000000000 ) ) ;
#27 = EDGE_CURVE ( 'NONE', #99, #11, #18, .T. ) ;
#28 = DIRECTION ( 'NONE',  ( 0.000000000000000000, 0.000000000000000000, 1.000000000000000000 ) ) ;
#29 = PLANE ( 'NONE',  #4 ) ;
#30 = EDGE_CURVE ( 'NONE', #228, #83, #65, .T. ) ;
#31 = ORIENTED_EDGE ( 'NONE', *, *, #147, .T. ) ;
#32 = PRODUCT_DEFINITION ( 'NEZNÁMÝ', '', #79, #249 ) ;
#33 = CARTESIAN_POINT ( 'NONE',  ( 0.000000000000000000, 0.000000000000000000, 3.000000000000000000 ) ) ;
#34 = DATE_TIME_ROLE ( 'creation_date' ) ;
#35 = CARTESIAN_POINT ( 'NONE',  ( 2.600000000000000089, 3.184081677783117698E-16, 3.000000000000000000 ) ) ;
#36 = APPROVAL_STATUS ( 'not_yet_approved' ) ;
#37 = FACE_OUTER_BOUND ( 'NONE', #191, .T. ) ;
#38 = FACE_OUTER_BOUND ( 'NONE', #107, .T. ) ;
#39 = PERSON_AND_ORGANIZATION ( #106, #212 ) ;
#40 = DIRECTION ( 'NONE',  ( 0.000000000000000000, 0.000000000000000000, 1.000000000000000000 ) ) ;
#41 = PERSON_AND_ORGANIZATION ( #106, #212 ) ;
#42 = LOCAL_TIME ( 13, 28, 15.00000000000000000, #197 ) ;
#43 = ORIENTED_EDGE ( 'NONE', *, *, #7, .F. ) ;
#44 = EDGE_CURVE ( 'NONE', #11, #102, #49, .T. ) ;
#45 = CARTESIAN_POINT ( 'NONE',  ( 2.600000000000000089, 3.184081677783117698E-16, 125.0000000000000000 ) ) ;
#46 = PRODUCT ( 'a5af', 'a5af', '', ( #223 ) ) ;
#47 = COORDINATED_UNIVERSAL_TIME_OFFSET ( 1, 0, .AHEAD. ) ;
#48 = APPLICATION_CONTEXT ( 'configuration controlled 3d designs of mechanical parts and assemblies' ) ;
#49 = CIRCLE ( 'NONE', #195, 2.600000000000000089 ) ;
#50 = AXIS2_PLACEMENT_3D ( 'NONE', #21, #78, #55 ) ;
#51 = ORIENTED_EDGE ( 'NONE', *, *, #245, .T. ) ;
#52 = ORIENTED_EDGE ( 'NONE', *, *, #133, .F. ) ;
#53 = CC_DESIGN_PERSON_AND_ORGANIZATION_ASSIGNMENT ( #68, #208, ( #46 ) ) ;
#54 = ORIENTED_EDGE ( 'NONE', *, *, #27, .F. ) ;
#55 = DIRECTION ( 'NONE',  ( 1.000000000000000000, 0.000000000000000000, -0.000000000000000000 ) ) ;
#56 = SECURITY_CLASSIFICATION_LEVEL ( 'unclassified' ) ;
#57 = CC_DESIGN_DATE_AND_TIME_ASSIGNMENT ( #203, #34, ( #32 ) ) ;
#58 = DIRECTION ( 'NONE',  ( 1.000000000000000000, 0.000000000000000000, 0.000000000000000000 ) ) ;
#59 =( GEOMETRIC_REPRESENTATION_CONTEXT ( 3 ) GLOBAL_UNCERTAINTY_ASSIGNED_CONTEXT ( ( #148 ) ) GLOBAL_UNIT_ASSIGNED_CONTEXT ( ( #113, #144, #19 ) ) REPRESENTATION_CONTEXT ( 'NONE', 'WORKASPACE' ) );
#60 = CALENDAR_DATE ( 2023, 12, 2 ) ;
#61 = PLANE ( 'NONE',  #151 ) ;
#62 = DIRECTION ( 'NONE',  ( 1.000000000000000000, 0.000000000000000000, 0.000000000000000000 ) ) ;
#63 = DATE_AND_TIME ( #60, #42 ) ;
#64 = PLANE ( 'NONE',  #50 ) ;
#65 = LINE ( 'NONE', #175, #164 ) ;
#66 = CALENDAR_DATE ( 2023, 12, 2 ) ;
#67 = DIRECTION ( 'NONE',  ( -0.000000000000000000, -0.000000000000000000, -1.000000000000000000 ) ) ;
#68 = PERSON_AND_ORGANIZATION ( #106, #212 ) ;
#69 = CARTESIAN_POINT ( 'NONE',  ( 0.000000000000000000, 0.000000000000000000, 0.000000000000000000 ) ) ;
#70 = VECTOR ( 'NONE', #155, 1000.000000000000000 ) ;
#71 = AXIS2_PLACEMENT_3D ( 'NONE', #112, #198, #255 ) ;
#72 = APPROVAL ( #36, 'NEURÈENÝ' ) ;
#73 = ORIENTED_EDGE ( 'NONE', *, *, #44, .T. ) ;
#74 = CIRCLE ( 'NONE', #173, 5.000000000000000000 ) ;
#75 = CC_DESIGN_PERSON_AND_ORGANIZATION_ASSIGNMENT ( #39, #114, ( #79 ) ) ;
#76 = CARTESIAN_POINT ( 'NONE',  ( -5.000000000000000000, 0.000000000000000000, 0.000000000000000000 ) ) ;
#77 = CALENDAR_DATE ( 2023, 12, 2 ) ;
#78 = DIRECTION ( 'NONE',  ( 0.000000000000000000, 0.000000000000000000, 1.000000000000000000 ) ) ;
#79 = PRODUCT_DEFINITION_FORMATION_WITH_SPECIFIED_SOURCE ( 'LIBOVOLNÝ', '', #46, .NOT_KNOWN. ) ;
#80 = PERSON_AND_ORGANIZATION_ROLE ( 'creator' ) ;
#81 = EDGE_CURVE ( 'NONE', #228, #236, #225, .T. ) ;
#82 = DIRECTION ( 'NONE',  ( -0.000000000000000000, -0.000000000000000000, -1.000000000000000000 ) ) ;
#83 = VERTEX_POINT ( 'NONE', #76 ) ;
#84 = DIRECTION ( 'NONE',  ( -1.000000000000000000, 0.000000000000000000, 0.000000000000000000 ) ) ;
#85 = APPROVAL_DATE_TIME ( #63, #206 ) ;
#86 = ADVANCED_FACE ( 'NONE', ( #141 ), #201, .T. ) ;
#87 = APPROVAL_PERSON_ORGANIZATION ( #142, #72, #132 ) ;
#88 = DIRECTION ( 'NONE',  ( 0.000000000000000000, 0.000000000000000000, 1.000000000000000000 ) ) ;
#89 = CC_DESIGN_APPROVAL ( #206, ( #79 ) ) ;
#90 = CIRCLE ( 'NONE', #242, 2.600000000000000089 ) ;
#91 = ORIENTED_EDGE ( 'NONE', *, *, #200, .F. ) ;
#92 = FACE_OUTER_BOUND ( 'NONE', #24, .T. ) ;
#93 = COORDINATED_UNIVERSAL_TIME_OFFSET ( 1, 0, .AHEAD. ) ;
#94 = LINE ( 'NONE', #2, #70 ) ;
#95 = DATE_AND_TIME ( #66, #221 ) ;
#96 = DIRECTION ( 'NONE',  ( 1.000000000000000000, 0.000000000000000000, 0.000000000000000000 ) ) ;
#97 = PERSON_AND_ORGANIZATION ( #106, #212 ) ;
#98 = CARTESIAN_POINT ( 'NONE',  ( 0.000000000000000000, 0.000000000000000000, 125.0000000000000000 ) ) ;
#99 = VERTEX_POINT ( 'NONE', #14 ) ;
#100 = EDGE_LOOP ( 'NONE', ( #184, #243 ) ) ;
#101 = LOCAL_TIME ( 13, 28, 15.00000000000000000, #163 ) ;
#102 = VERTEX_POINT ( 'NONE', #35 ) ;
#103 = CARTESIAN_POINT ( 'NONE',  ( 0.000000000000000000, 0.000000000000000000, 0.000000000000000000 ) ) ;
#104 = CARTESIAN_POINT ( 'NONE',  ( 0.000000000000000000, 0.000000000000000000, 3.000000000000000000 ) ) ;
#105 = DIRECTION ( 'NONE',  ( 1.000000000000000000, 0.000000000000000000, 0.000000000000000000 ) ) ;
#106 = PERSON ( 'NEURÈENÝ', 'NEURÈENÝ', 'NEURÈENÝ', ('NEURÈENÝ'), ('NEURÈENÝ'), ('NEURÈENÝ') ) ;
#107 = EDGE_LOOP ( 'NONE', ( #52, #189, #51, #54 ) ) ;
#108 = DIRECTION ( 'NONE',  ( 1.000000000000000000, 0.000000000000000000, 0.000000000000000000 ) ) ;
#109 = CIRCLE ( 'NONE', #193, 2.600000000000000089 ) ;
#110 = FACE_BOUND ( 'NONE', #127, .T. ) ;
#111 = APPROVAL_ROLE ( '' ) ;
#112 = CARTESIAN_POINT ( 'NONE',  ( 0.000000000000000000, 0.000000000000000000, 3.000000000000000000 ) ) ;
#113 =( LENGTH_UNIT ( ) NAMED_UNIT ( * ) SI_UNIT ( .MILLI., .METRE. ) );
#114 = PERSON_AND_ORGANIZATION_ROLE ( 'design_supplier' ) ;
#115 = CYLINDRICAL_SURFACE ( 'NONE', #122, 5.000000000000000000 ) ;
#116 = CC_DESIGN_DATE_AND_TIME_ASSIGNMENT ( #117, #136, ( #124 ) ) ;
#117 = DATE_AND_TIME ( #214, #246 ) ;
#118 = CC_DESIGN_PERSON_AND_ORGANIZATION_ASSIGNMENT ( #239, #80, ( #79 ) ) ;
#119 = APPLICATION_PROTOCOL_DEFINITION ( 'international standard', 'config_control_design', 1994, #181 ) ;
#120 = APPROVAL_ROLE ( '' ) ;
#121 = ADVANCED_FACE ( 'NONE', ( #110, #213 ), #64, .T. ) ;
#122 = AXIS2_PLACEMENT_3D ( 'NONE', #232, #140, #84 ) ;
#123 = CALENDAR_DATE ( 2023, 12, 2 ) ;
#124 = SECURITY_CLASSIFICATION ( '', '', #56 ) ;
#125 = VECTOR ( 'NONE', #82, 1000.000000000000000 ) ;
#126 = ORIENTED_EDGE ( 'NONE', *, *, #231, .F. ) ;
#127 = EDGE_LOOP ( 'NONE', ( #150, #149 ) ) ;
#128 = CIRCLE ( 'NONE', #20, 5.000000000000000000 ) ;
#129 = EDGE_LOOP ( 'NONE', ( #157, #210 ) ) ;
#130 = CIRCLE ( 'NONE', #248, 2.600000000000000089 ) ;
#131 = DIRECTION ( 'NONE',  ( 1.000000000000000000, 0.000000000000000000, -0.000000000000000000 ) ) ;
#132 = APPROVAL_ROLE ( '' ) ;
#133 = EDGE_CURVE ( 'NONE', #251, #99, #130, .T. ) ;
#134 = DIRECTION ( 'NONE',  ( -0.000000000000000000, -0.000000000000000000, -1.000000000000000000 ) ) ;
#135 = CC_DESIGN_SECURITY_CLASSIFICATION ( #124, ( #79 ) ) ;
#136 = DATE_TIME_ROLE ( 'classification_date' ) ;
#137 = DIRECTION ( 'NONE',  ( 0.000000000000000000, 0.000000000000000000, 1.000000000000000000 ) ) ;
#138 = DIRECTION ( 'NONE',  ( 1.000000000000000000, 0.000000000000000000, 0.000000000000000000 ) ) ;
#139 = APPROVAL_DATE_TIME ( #95, #72 ) ;
#140 = DIRECTION ( 'NONE',  ( -0.000000000000000000, -0.000000000000000000, -1.000000000000000000 ) ) ;
#141 = FACE_OUTER_BOUND ( 'NONE', #5, .T. ) ;
#142 = PERSON_AND_ORGANIZATION ( #106, #212 ) ;
#143 = DIRECTION ( 'NONE',  ( -1.000000000000000000, 0.000000000000000000, 0.000000000000000000 ) ) ;
#144 =( NAMED_UNIT ( * ) PLANE_ANGLE_UNIT ( ) SI_UNIT ( $, .RADIAN. ) );
#145 = AXIS2_PLACEMENT_3D ( 'NONE', #103, #156, #62 ) ;
#146 = CARTESIAN_POINT ( 'NONE',  ( 0.000000000000000000, 0.000000000000000000, 125.0000000000000000 ) ) ;
#147 = EDGE_CURVE ( 'NONE', #236, #22, #94, .T. ) ;
#148 = UNCERTAINTY_MEASURE_WITH_UNIT (LENGTH_MEASURE( 1.000000000000000082E-05 ), #113, 'distance_accuracy_value', 'NONE');
#149 = ORIENTED_EDGE ( 'NONE', *, *, #245, .F. ) ;
#150 = ORIENTED_EDGE ( 'NONE', *, *, #44, .F. ) ;
#151 = AXIS2_PLACEMENT_3D ( 'NONE', #215, #162, #131 ) ;
#152 = CLOSED_SHELL ( 'NONE', ( #238, #192, #172, #121, #190, #86, #209 ) ) ;
#153 = CARTESIAN_POINT ( 'NONE',  ( 0.000000000000000000, 0.000000000000000000, 125.0000000000000000 ) ) ;
#154 = ORIENTED_EDGE ( 'NONE', *, *, #10, .F. ) ;
#155 = DIRECTION ( 'NONE',  ( -0.000000000000000000, -0.000000000000000000, -1.000000000000000000 ) ) ;
#156 = DIRECTION ( 'NONE',  ( 0.000000000000000000, 0.000000000000000000, 1.000000000000000000 ) ) ;
#157 = ORIENTED_EDGE ( 'NONE', *, *, #10, .T. ) ;
#158 = MANIFOLD_SOLID_BREP ( 'Pøidat vysunutím3', #152 ) ;
#159 = CARTESIAN_POINT ( 'NONE',  ( 0.000000000000000000, 0.000000000000000000, 0.000000000000000000 ) ) ;
#160 = CYLINDRICAL_SURFACE ( 'NONE', #13, 2.600000000000000089 ) ;
#161 = ORIENTED_EDGE ( 'NONE', *, *, #30, .T. ) ;
#162 = DIRECTION ( 'NONE',  ( 0.000000000000000000, 0.000000000000000000, 1.000000000000000000 ) ) ;
#163 = COORDINATED_UNIVERSAL_TIME_OFFSET ( 1, 0, .AHEAD. ) ;
#164 = VECTOR ( 'NONE', #253, 1000.000000000000000 ) ;
#165 = AXIS2_PLACEMENT_3D ( 'NONE', #33, #180, #58 ) ;
#166 = EDGE_CURVE ( 'NONE', #83, #22, #74, .T. ) ;
#167 = ORIENTED_EDGE ( 'NONE', *, *, #166, .F. ) ;
#168 = DIRECTION ( 'NONE',  ( 1.000000000000000000, 0.000000000000000000, -0.000000000000000000 ) ) ;
#169 = CC_DESIGN_APPROVAL ( #72, ( #124 ) ) ;
#170 = VECTOR ( 'NONE', #230, 1000.000000000000000 ) ;
#171 = CC_DESIGN_PERSON_AND_ORGANIZATION_ASSIGNMENT ( #41, #17, ( #32 ) ) ;
#172 = ADVANCED_FACE ( 'NONE', ( #234 ), #115, .T. ) ;
#173 = AXIS2_PLACEMENT_3D ( 'NONE', #159, #137, #96 ) ;
#174 = DIRECTION ( 'NONE',  ( 1.000000000000000000, 0.000000000000000000, 0.000000000000000000 ) ) ;
#175 = CARTESIAN_POINT ( 'NONE',  ( -5.000000000000000000, 0.000000000000000000, 3.000000000000000000 ) ) ;
#176 = CARTESIAN_POINT ( 'NONE',  ( 5.000000000000000000, 6.123233995736766282E-16, 3.000000000000000000 ) ) ;
#177 = SHAPE_DEFINITION_REPRESENTATION ( #6, #218 ) ;
#178 = CARTESIAN_POINT ( 'NONE',  ( 0.000000000000000000, 0.000000000000000000, 3.000000000000000000 ) ) ;
#179 = AXIS2_PLACEMENT_3D ( 'NONE', #69, #235, #205 ) ;
#180 = DIRECTION ( 'NONE',  ( 0.000000000000000000, 0.000000000000000000, 1.000000000000000000 ) ) ;
#181 = APPLICATION_CONTEXT ( 'configuration controlled 3d designs of mechanical parts and assemblies' ) ;
#182 = COORDINATED_UNIVERSAL_TIME_OFFSET ( 1, 0, .AHEAD. ) ;
#183 = ORIENTED_EDGE ( 'NONE', *, *, #27, .T. ) ;
#184 = ORIENTED_EDGE ( 'NONE', *, *, #81, .T. ) ;
#185 = APPLICATION_PROTOCOL_DEFINITION ( 'international standard', 'config_control_design', 1994, #48 ) ;
#186 = AXIS2_PLACEMENT_3D ( 'NONE', #194, #134, #229 ) ;
#187 = PRODUCT_RELATED_PRODUCT_CATEGORY ( 'detail', '', ( #46 ) ) ;
#188 = CC_DESIGN_APPROVAL ( #250, ( #32 ) ) ;
#189 = ORIENTED_EDGE ( 'NONE', *, *, #7, .T. ) ;
#190 = ADVANCED_FACE ( 'NONE', ( #92 ), #61, .F. ) ;
#191 = EDGE_LOOP ( 'NONE', ( #126, #31, #204, #240 ) ) ;
#192 = ADVANCED_FACE ( 'NONE', ( #37 ), #211, .T. ) ;
#193 = AXIS2_PLACEMENT_3D ( 'NONE', #199, #88, #105 ) ;
#194 = CARTESIAN_POINT ( 'NONE',  ( 0.000000000000000000, 0.000000000000000000, 125.0000000000000000 ) ) ;
#195 = AXIS2_PLACEMENT_3D ( 'NONE', #178, #40, #174 ) ;
#196 = DIRECTION ( 'NONE',  ( 0.000000000000000000, 0.000000000000000000, 1.000000000000000000 ) ) ;
#197 = COORDINATED_UNIVERSAL_TIME_OFFSET ( 1, 0, .AHEAD. ) ;
#198 = DIRECTION ( 'NONE',  ( -0.000000000000000000, -0.000000000000000000, -1.000000000000000000 ) ) ;
#199 = CARTESIAN_POINT ( 'NONE',  ( 0.000000000000000000, 0.000000000000000000, 3.000000000000000000 ) ) ;
#200 = EDGE_CURVE ( 'NONE', #22, #83, #247, .T. ) ;
#201 = CYLINDRICAL_SURFACE ( 'NONE', #186, 2.600000000000000089 ) ;
#202 = ORIENTED_EDGE ( 'NONE', *, *, #166, .T. ) ;
#203 = DATE_AND_TIME ( #77, #101 ) ;
#204 = ORIENTED_EDGE ( 'NONE', *, *, #200, .T. ) ;
#205 = DIRECTION ( 'NONE',  ( 1.000000000000000000, 0.000000000000000000, 0.000000000000000000 ) ) ;
#206 = APPROVAL ( #23, 'NEURÈENÝ' ) ;
#207 = APPROVAL_DATE_TIME ( #9, #250 ) ;
#208 = PERSON_AND_ORGANIZATION_ROLE ( 'design_owner' ) ;
#209 = ADVANCED_FACE ( 'NONE', ( #233 ), #29, .T. ) ;
#210 = ORIENTED_EDGE ( 'NONE', *, *, #133, .T. ) ;
#211 = CYLINDRICAL_SURFACE ( 'NONE', #71, 5.000000000000000000 ) ;
#212 = ORGANIZATION ( 'NEURÈENÝ', 'NEURÈENÝ', '' ) ;
#213 = FACE_OUTER_BOUND ( 'NONE', #100, .T. ) ;
#214 = CALENDAR_DATE ( 2023, 12, 2 ) ;
#215 = CARTESIAN_POINT ( 'NONE',  ( 0.000000000000000000, 0.000000000000000000, 0.000000000000000000 ) ) ;
#216 = DIRECTION ( 'NONE',  ( 0.000000000000000000, 0.000000000000000000, 1.000000000000000000 ) ) ;
#217 = LINE ( 'NONE', #226, #170 ) ;
#218 = ADVANCED_BREP_SHAPE_REPRESENTATION ( 'a5af', ( #158, #145 ), #59 ) ;
#219 = CARTESIAN_POINT ( 'NONE',  ( -2.600000000000000089, 0.000000000000000000, 3.000000000000000000 ) ) ;
#220 = DIRECTION ( 'NONE',  ( 0.000000000000000000, 0.000000000000000000, 1.000000000000000000 ) ) ;
#221 = LOCAL_TIME ( 13, 28, 15.00000000000000000, #93 ) ;
#222 = LOCAL_TIME ( 13, 28, 15.00000000000000000, #47 ) ;
#223 = MECHANICAL_CONTEXT ( 'NONE', #48, 'mechanical' ) ;
#224 = ORIENTED_EDGE ( 'NONE', *, *, #81, .F. ) ;
#225 = CIRCLE ( 'NONE', #165, 5.000000000000000000 ) ;
#226 = CARTESIAN_POINT ( 'NONE',  ( 2.600000000000000089, 3.184081677783117698E-16, 125.0000000000000000 ) ) ;
#227 = ORIENTED_EDGE ( 'NONE', *, *, #147, .F. ) ;
#228 = VERTEX_POINT ( 'NONE', #26 ) ;
#229 = DIRECTION ( 'NONE',  ( -1.000000000000000000, 0.000000000000000000, 0.000000000000000000 ) ) ;
#230 = DIRECTION ( 'NONE',  ( -0.000000000000000000, -0.000000000000000000, -1.000000000000000000 ) ) ;
#231 = EDGE_CURVE ( 'NONE', #236, #228, #128, .T. ) ;
#232 = CARTESIAN_POINT ( 'NONE',  ( 0.000000000000000000, 0.000000000000000000, 3.000000000000000000 ) ) ;
#233 = FACE_OUTER_BOUND ( 'NONE', #129, .T. ) ;
#234 = FACE_OUTER_BOUND ( 'NONE', #25, .T. ) ;
#235 = DIRECTION ( 'NONE',  ( 0.000000000000000000, 0.000000000000000000, 1.000000000000000000 ) ) ;
#236 = VERTEX_POINT ( 'NONE', #176 ) ;
#237 = CARTESIAN_POINT ( 'NONE',  ( 5.000000000000000000, 6.123233995736766282E-16, 0.000000000000000000 ) ) ;
#238 = ADVANCED_FACE ( 'NONE', ( #38 ), #160, .T. ) ;
#239 = PERSON_AND_ORGANIZATION ( #106, #212 ) ;
#240 = ORIENTED_EDGE ( 'NONE', *, *, #30, .F. ) ;
#241 = APPROVAL_PERSON_ORGANIZATION ( #3, #206, #111 ) ;
#242 = AXIS2_PLACEMENT_3D ( 'NONE', #153, #220, #108 ) ;
#243 = ORIENTED_EDGE ( 'NONE', *, *, #231, .T. ) ;
#244 = PERSON_AND_ORGANIZATION ( #106, #212 ) ;
#245 = EDGE_CURVE ( 'NONE', #102, #11, #109, .T. ) ;
#246 = LOCAL_TIME ( 13, 28, 15.00000000000000000, #182 ) ;
#247 = CIRCLE ( 'NONE', #179, 5.000000000000000000 ) ;
#248 = AXIS2_PLACEMENT_3D ( 'NONE', #98, #196, #15 ) ;
#249 = DESIGN_CONTEXT ( 'detailed design', #181, 'design' ) ;
#250 = APPROVAL ( #8, 'NEURÈENÝ' ) ;
#251 = VERTEX_POINT ( 'NONE', #45 ) ;
#252 = CARTESIAN_POINT ( 'NONE',  ( -2.600000000000000089, 0.000000000000000000, 125.0000000000000000 ) ) ;
#253 = DIRECTION ( 'NONE',  ( -0.000000000000000000, -0.000000000000000000, -1.000000000000000000 ) ) ;
#254 = PERSON_AND_ORGANIZATION_ROLE ( 'classification_officer' ) ;
#255 = DIRECTION ( 'NONE',  ( -1.000000000000000000, 0.000000000000000000, 0.000000000000000000 ) ) ;
ENDSEC;
END-ISO-10303-21;
