ISO-10303-21;
HEADER;
FILE_DESCRIPTION (( 'STEP AP203' ),
    '1' );
FILE_NAME ('2ea1.STEP',
    '2023-02-12T10:42:00',
    ( '' ),
    ( '' ),
    'SwSTEP 2.0',
    'SolidWorks 2019',
    '' );
FILE_SCHEMA (( 'CONFIG_CONTROL_DESIGN' ));
ENDSEC;

DATA;
#1 = LOCAL_TIME ( 11, 42, 0.000000000000000000, #159 ) ;
#2 =( NAMED_UNIT ( * ) SI_UNIT ( $, .STERADIAN. ) SOLID_ANGLE_UNIT ( ) );
#3 = PRODUCT_RELATED_PRODUCT_CATEGORY ( 'detail', '', ( #99 ) ) ;
#4 = LINE ( 'NONE', #69, #124 ) ;
#5 = UNCERTAINTY_MEASURE_WITH_UNIT (LENGTH_MEASURE( 1.000000000000000082E-05 ), #118, 'distance_accuracy_value', 'NONE');
#6 = AXIS2_PLACEMENT_3D ( 'NONE', #126, #203, #204 ) ;
#7 = CARTESIAN_POINT ( 'NONE',  ( 0.000000000000000000, 0.000000000000000000, 7.000000000000000000 ) ) ;
#8 = ADVANCED_BREP_SHAPE_REPRESENTATION ( '2ea1', ( #149, #14 ), #122 ) ;
#9 = FACE_OUTER_BOUND ( 'NONE', #194, .T. ) ;
#10 = DIRECTION ( 'NONE',  ( 1.000000000000000000, 0.000000000000000000, -0.000000000000000000 ) ) ;
#11 = CIRCLE ( 'NONE', #76, 12.00000000000000178 ) ;
#12 = DESIGN_CONTEXT ( 'detailed design', #226, 'design' ) ;
#13 = AXIS2_PLACEMENT_3D ( 'NONE', #137, #213, #120 ) ;
#14 = AXIS2_PLACEMENT_3D ( 'NONE', #168, #171, #251 ) ;
#15 = CALENDAR_DATE ( 2023, 12, 2 ) ;
#16 = ORIENTED_EDGE ( 'NONE', *, *, #207, .F. ) ;
#17 = DATE_TIME_ROLE ( 'creation_date' ) ;
#18 = PRODUCT_DEFINITION ( 'NEZNÁMÝ', '', #247, #12 ) ;
#19 = ORIENTED_EDGE ( 'NONE', *, *, #191, .F. ) ;
#20 = PERSON_AND_ORGANIZATION_ROLE ( 'design_owner' ) ;
#21 = DIRECTION ( 'NONE',  ( 0.000000000000000000, 0.000000000000000000, 1.000000000000000000 ) ) ;
#22 = CALENDAR_DATE ( 2023, 12, 2 ) ;
#23 = SECURITY_CLASSIFICATION ( '', '', #235 ) ;
#24 = EDGE_CURVE ( 'NONE', #172, #117, #246, .T. ) ;
#25 = CARTESIAN_POINT ( 'NONE',  ( 0.000000000000000000, 0.000000000000000000, 100.0000000000000000 ) ) ;
#26 = DIRECTION ( 'NONE',  ( -1.000000000000000000, 0.000000000000000000, 0.000000000000000000 ) ) ;
#27 = CARTESIAN_POINT ( 'NONE',  ( 9.000000000000000000, 1.102182119232617517E-15, 7.000000000000000000 ) ) ;
#28 = DIRECTION ( 'NONE',  ( 0.000000000000000000, 0.000000000000000000, 1.000000000000000000 ) ) ;
#29 = ORIENTED_EDGE ( 'NONE', *, *, #58, .F. ) ;
#30 = CC_DESIGN_APPROVAL ( #224, ( #18 ) ) ;
#31 = CARTESIAN_POINT ( 'NONE',  ( 12.00000000000000178, 1.469576158976824144E-15, 0.000000000000000000 ) ) ;
#32 = MECHANICAL_CONTEXT ( 'NONE', #214, 'mechanical' ) ;
#33 = PERSON_AND_ORGANIZATION ( #177, #212 ) ;
#34 = EDGE_LOOP ( 'NONE', ( #29, #95, #82, #254 ) ) ;
#35 = ORIENTED_EDGE ( 'NONE', *, *, #58, .T. ) ;
#36 = EDGE_LOOP ( 'NONE', ( #16, #78 ) ) ;
#37 = ORIENTED_EDGE ( 'NONE', *, *, #191, .T. ) ;
#38 = EDGE_CURVE ( 'NONE', #57, #154, #11, .T. ) ;
#39 = APPROVAL_PERSON_ORGANIZATION ( #63, #49, #222 ) ;
#40 = CARTESIAN_POINT ( 'NONE',  ( 9.000000000000000000, 1.102182119232617517E-15, 100.0000000000000000 ) ) ;
#41 = CALENDAR_DATE ( 2023, 12, 2 ) ;
#42 = DIRECTION ( 'NONE',  ( 0.000000000000000000, 0.000000000000000000, 1.000000000000000000 ) ) ;
#43 = DIRECTION ( 'NONE',  ( 1.000000000000000000, 0.000000000000000000, 0.000000000000000000 ) ) ;
#44 = AXIS2_PLACEMENT_3D ( 'NONE', #59, #42, #178 ) ;
#45 = CARTESIAN_POINT ( 'NONE',  ( -9.000000000000000000, 0.000000000000000000, 100.0000000000000000 ) ) ;
#46 = PRODUCT_DEFINITION_SHAPE ( 'NONE', 'NONE',  #18 ) ;
#47 = CYLINDRICAL_SURFACE ( 'NONE', #169, 12.00000000000000178 ) ;
#48 = DIRECTION ( 'NONE',  ( -1.000000000000000000, 0.000000000000000000, 0.000000000000000000 ) ) ;
#49 = APPROVAL ( #86, 'NEURÈENÝ' ) ;
#50 = DIRECTION ( 'NONE',  ( 0.000000000000000000, 0.000000000000000000, 1.000000000000000000 ) ) ;
#51 = AXIS2_PLACEMENT_3D ( 'NONE', #89, #208, #146 ) ;
#52 = AXIS2_PLACEMENT_3D ( 'NONE', #162, #72, #43 ) ;
#53 =( NAMED_UNIT ( * ) PLANE_ANGLE_UNIT ( ) SI_UNIT ( $, .RADIAN. ) );
#54 = ADVANCED_FACE ( 'NONE', ( #250 ), #152, .F. ) ;
#55 = APPROVAL_ROLE ( '' ) ;
#56 = ORIENTED_EDGE ( 'NONE', *, *, #130, .T. ) ;
#57 = VERTEX_POINT ( 'NONE', #237 ) ;
#58 = EDGE_CURVE ( 'NONE', #172, #232, #85, .T. ) ;
#59 = CARTESIAN_POINT ( 'NONE',  ( 0.000000000000000000, 0.000000000000000000, 0.000000000000000000 ) ) ;
#60 = CC_DESIGN_SECURITY_CLASSIFICATION ( #23, ( #247 ) ) ;
#61 = PERSON_AND_ORGANIZATION ( #177, #212 ) ;
#62 = EDGE_CURVE ( 'NONE', #117, #209, #123, .T. ) ;
#63 = PERSON_AND_ORGANIZATION ( #177, #212 ) ;
#64 = APPROVAL_PERSON_ORGANIZATION ( #150, #224, #55 ) ;
#65 = CC_DESIGN_PERSON_AND_ORGANIZATION_ASSIGNMENT ( #77, #94, ( #247 ) ) ;
#66 = DIRECTION ( 'NONE',  ( -0.000000000000000000, -0.000000000000000000, -1.000000000000000000 ) ) ;
#67 = CARTESIAN_POINT ( 'NONE',  ( -12.00000000000000178, 0.000000000000000000, 7.000000000000000000 ) ) ;
#68 = AXIS2_PLACEMENT_3D ( 'NONE', #25, #125, #10 ) ;
#69 = CARTESIAN_POINT ( 'NONE',  ( 12.00000000000000178, 1.469576158976824144E-15, 7.000000000000000000 ) ) ;
#70 = CARTESIAN_POINT ( 'NONE',  ( 0.000000000000000000, 0.000000000000000000, 7.000000000000000000 ) ) ;
#71 = EDGE_CURVE ( 'NONE', #117, #172, #83, .T. ) ;
#72 = DIRECTION ( 'NONE',  ( 0.000000000000000000, 0.000000000000000000, 1.000000000000000000 ) ) ;
#73 = DIRECTION ( 'NONE',  ( 1.000000000000000000, 0.000000000000000000, 0.000000000000000000 ) ) ;
#74 = ORIENTED_EDGE ( 'NONE', *, *, #207, .T. ) ;
#75 = DATE_AND_TIME ( #136, #134 ) ;
#76 = AXIS2_PLACEMENT_3D ( 'NONE', #197, #21, #100 ) ;
#77 = PERSON_AND_ORGANIZATION ( #177, #212 ) ;
#78 = ORIENTED_EDGE ( 'NONE', *, *, #130, .F. ) ;
#79 = CIRCLE ( 'NONE', #219, 9.000000000000000000 ) ;
#80 = APPROVAL_STATUS ( 'not_yet_approved' ) ;
#81 = EDGE_LOOP ( 'NONE', ( #121, #19, #217, #74 ) ) ;
#82 = ORIENTED_EDGE ( 'NONE', *, *, #62, .T. ) ;
#83 = CIRCLE ( 'NONE', #176, 9.000000000000000000 ) ;
#84 = CIRCLE ( 'NONE', #87, 12.00000000000000178 ) ;
#85 = LINE ( 'NONE', #40, #216 ) ;
#86 = APPROVAL_STATUS ( 'not_yet_approved' ) ;
#87 = AXIS2_PLACEMENT_3D ( 'NONE', #183, #92, #181 ) ;
#88 = DIRECTION ( 'NONE',  ( -0.000000000000000000, -0.000000000000000000, -1.000000000000000000 ) ) ;
#89 = CARTESIAN_POINT ( 'NONE',  ( 0.000000000000000000, 0.000000000000000000, 100.0000000000000000 ) ) ;
#90 = CYLINDRICAL_SURFACE ( 'NONE', #199, 12.00000000000000178 ) ;
#91 = PLANE ( 'NONE',  #114 ) ;
#92 = DIRECTION ( 'NONE',  ( 0.000000000000000000, 0.000000000000000000, 1.000000000000000000 ) ) ;
#93 = LOCAL_TIME ( 11, 42, 0.000000000000000000, #218 ) ;
#94 = PERSON_AND_ORGANIZATION_ROLE ( 'creator' ) ;
#95 = ORIENTED_EDGE ( 'NONE', *, *, #71, .F. ) ;
#96 = PERSON_AND_ORGANIZATION_ROLE ( 'creator' ) ;
#97 = ORIENTED_EDGE ( 'NONE', *, *, #38, .T. ) ;
#98 = ADVANCED_FACE ( 'NONE', ( #244 ), #111, .T. ) ;
#99 = PRODUCT ( '2ea1', '2ea1', '', ( #32 ) ) ;
#100 = DIRECTION ( 'NONE',  ( 1.000000000000000000, 0.000000000000000000, 0.000000000000000000 ) ) ;
#101 = CIRCLE ( 'NONE', #239, 9.000000000000000000 ) ;
#102 = EDGE_CURVE ( 'NONE', #209, #232, #101, .T. ) ;
#103 = APPROVAL_DATE_TIME ( #231, #233 ) ;
#104 = CALENDAR_DATE ( 2023, 12, 2 ) ;
#105 = CLOSED_SHELL ( 'NONE', ( #201, #156, #144, #243, #54, #119, #98 ) ) ;
#106 = CIRCLE ( 'NONE', #138, 12.00000000000000178 ) ;
#107 = COORDINATED_UNIVERSAL_TIME_OFFSET ( 1, 0, .AHEAD. ) ;
#108 = LOCAL_TIME ( 11, 42, 0.000000000000000000, #107 ) ;
#109 = CARTESIAN_POINT ( 'NONE',  ( -12.00000000000000178, 0.000000000000000000, 0.000000000000000000 ) ) ;
#110 = CARTESIAN_POINT ( 'NONE',  ( 9.000000000000000000, 1.102182119232617517E-15, 100.0000000000000000 ) ) ;
#111 = PLANE ( 'NONE',  #68 ) ;
#112 = DIRECTION ( 'NONE',  ( 1.000000000000000000, 0.000000000000000000, 0.000000000000000000 ) ) ;
#113 = EDGE_LOOP ( 'NONE', ( #173, #245 ) ) ;
#114 = AXIS2_PLACEMENT_3D ( 'NONE', #227, #50, #210 ) ;
#115 = COORDINATED_UNIVERSAL_TIME_OFFSET ( 1, 0, .AHEAD. ) ;
#116 = ORIENTED_EDGE ( 'NONE', *, *, #62, .F. ) ;
#117 = VERTEX_POINT ( 'NONE', #45 ) ;
#118 =( LENGTH_UNIT ( ) NAMED_UNIT ( * ) SI_UNIT ( .MILLI., .METRE. ) );
#119 = ADVANCED_FACE ( 'NONE', ( #160 ), #164, .T. ) ;
#120 = DIRECTION ( 'NONE',  ( 1.000000000000000000, 0.000000000000000000, 0.000000000000000000 ) ) ;
#121 = ORIENTED_EDGE ( 'NONE', *, *, #215, .F. ) ;
#122 =( GEOMETRIC_REPRESENTATION_CONTEXT ( 3 ) GLOBAL_UNCERTAINTY_ASSIGNED_CONTEXT ( ( #5 ) ) GLOBAL_UNIT_ASSIGNED_CONTEXT ( ( #118, #53, #2 ) ) REPRESENTATION_CONTEXT ( 'NONE', 'WORKASPACE' ) );
#123 = LINE ( 'NONE', #175, #189 ) ;
#124 = VECTOR ( 'NONE', #88, 1000.000000000000000 ) ;
#125 = DIRECTION ( 'NONE',  ( 0.000000000000000000, 0.000000000000000000, 1.000000000000000000 ) ) ;
#126 = CARTESIAN_POINT ( 'NONE',  ( 0.000000000000000000, 0.000000000000000000, 100.0000000000000000 ) ) ;
#127 = CARTESIAN_POINT ( 'NONE',  ( 0.000000000000000000, 0.000000000000000000, 7.000000000000000000 ) ) ;
#128 = FACE_OUTER_BOUND ( 'NONE', #170, .T. ) ;
#129 = FACE_OUTER_BOUND ( 'NONE', #196, .T. ) ;
#130 = EDGE_CURVE ( 'NONE', #252, #133, #106, .T. ) ;
#131 = EDGE_LOOP ( 'NONE', ( #187, #228 ) ) ;
#132 = APPROVAL_DATE_TIME ( #230, #224 ) ;
#133 = VERTEX_POINT ( 'NONE', #109 ) ;
#134 = LOCAL_TIME ( 11, 42, 0.000000000000000000, #192 ) ;
#135 = EDGE_CURVE ( 'NONE', #154, #133, #163, .T. ) ;
#136 = CALENDAR_DATE ( 2023, 12, 2 ) ;
#137 = CARTESIAN_POINT ( 'NONE',  ( 0.000000000000000000, 0.000000000000000000, 100.0000000000000000 ) ) ;
#138 = AXIS2_PLACEMENT_3D ( 'NONE', #242, #186, #241 ) ;
#139 = CC_DESIGN_PERSON_AND_ORGANIZATION_ASSIGNMENT ( #61, #140, ( #23 ) ) ;
#140 = PERSON_AND_ORGANIZATION_ROLE ( 'classification_officer' ) ;
#141 = CC_DESIGN_DATE_AND_TIME_ASSIGNMENT ( #205, #238, ( #23 ) ) ;
#142 = SHAPE_DEFINITION_REPRESENTATION ( #46, #8 ) ;
#143 = DIRECTION ( 'NONE',  ( -0.000000000000000000, -0.000000000000000000, -1.000000000000000000 ) ) ;
#144 = ADVANCED_FACE ( 'NONE', ( #206 ), #90, .T. ) ;
#145 = CC_DESIGN_APPROVAL ( #49, ( #23 ) ) ;
#146 = DIRECTION ( 'NONE',  ( -1.000000000000000000, 0.000000000000000000, 0.000000000000000000 ) ) ;
#147 = DIRECTION ( 'NONE',  ( 0.000000000000000000, 0.000000000000000000, 1.000000000000000000 ) ) ;
#148 = CARTESIAN_POINT ( 'NONE',  ( -12.00000000000000178, 0.000000000000000000, 7.000000000000000000 ) ) ;
#149 = MANIFOLD_SOLID_BREP ( 'Pøidat vysunutím3', #105 ) ;
#150 = PERSON_AND_ORGANIZATION ( #177, #212 ) ;
#151 = APPROVAL_STATUS ( 'not_yet_approved' ) ;
#152 = PLANE ( 'NONE',  #44 ) ;
#153 = PERSON_AND_ORGANIZATION ( #177, #212 ) ;
#154 = VERTEX_POINT ( 'NONE', #148 ) ;
#155 = ORIENTED_EDGE ( 'NONE', *, *, #24, .F. ) ;
#156 = ADVANCED_FACE ( 'NONE', ( #128 ), #47, .T. ) ;
#157 = CARTESIAN_POINT ( 'NONE',  ( 0.000000000000000000, 0.000000000000000000, 100.0000000000000000 ) ) ;
#158 = CC_DESIGN_APPROVAL ( #233, ( #247 ) ) ;
#159 = COORDINATED_UNIVERSAL_TIME_OFFSET ( 1, 0, .AHEAD. ) ;
#160 = FACE_OUTER_BOUND ( 'NONE', #34, .T. ) ;
#161 = DATE_AND_TIME ( #104, #108 ) ;
#162 = CARTESIAN_POINT ( 'NONE',  ( 0.000000000000000000, 0.000000000000000000, 0.000000000000000000 ) ) ;
#163 = LINE ( 'NONE', #67, #167 ) ;
#164 = CYLINDRICAL_SURFACE ( 'NONE', #6, 9.000000000000000000 ) ;
#165 = CYLINDRICAL_SURFACE ( 'NONE', #51, 9.000000000000000000 ) ;
#166 = ORIENTED_EDGE ( 'NONE', *, *, #135, .F. ) ;
#167 = VECTOR ( 'NONE', #240, 1000.000000000000000 ) ;
#168 = CARTESIAN_POINT ( 'NONE',  ( 0.000000000000000000, 0.000000000000000000, 0.000000000000000000 ) ) ;
#169 = AXIS2_PLACEMENT_3D ( 'NONE', #223, #143, #26 ) ;
#170 = EDGE_LOOP ( 'NONE', ( #193, #190, #56, #166 ) ) ;
#171 = DIRECTION ( 'NONE',  ( 0.000000000000000000, 0.000000000000000000, 1.000000000000000000 ) ) ;
#172 = VERTEX_POINT ( 'NONE', #110 ) ;
#173 = ORIENTED_EDGE ( 'NONE', *, *, #71, .T. ) ;
#174 = ORIENTED_EDGE ( 'NONE', *, *, #234, .T. ) ;
#175 = CARTESIAN_POINT ( 'NONE',  ( -9.000000000000000000, 0.000000000000000000, 100.0000000000000000 ) ) ;
#176 = AXIS2_PLACEMENT_3D ( 'NONE', #157, #236, #221 ) ;
#177 = PERSON ( 'NEURÈENÝ', 'NEURÈENÝ', 'NEURÈENÝ', ('NEURÈENÝ'), ('NEURÈENÝ'), ('NEURÈENÝ') ) ;
#178 = DIRECTION ( 'NONE',  ( 1.000000000000000000, 0.000000000000000000, -0.000000000000000000 ) ) ;
#179 = CC_DESIGN_PERSON_AND_ORGANIZATION_ASSIGNMENT ( #188, #96, ( #18 ) ) ;
#180 = CC_DESIGN_PERSON_AND_ORGANIZATION_ASSIGNMENT ( #33, #20, ( #99 ) ) ;
#181 = DIRECTION ( 'NONE',  ( 1.000000000000000000, 0.000000000000000000, 0.000000000000000000 ) ) ;
#182 = APPROVAL_DATE_TIME ( #161, #49 ) ;
#183 = CARTESIAN_POINT ( 'NONE',  ( 0.000000000000000000, 0.000000000000000000, 7.000000000000000000 ) ) ;
#184 = FACE_BOUND ( 'NONE', #131, .T. ) ;
#185 = CC_DESIGN_PERSON_AND_ORGANIZATION_ASSIGNMENT ( #153, #211, ( #247 ) ) ;
#186 = DIRECTION ( 'NONE',  ( 0.000000000000000000, 0.000000000000000000, 1.000000000000000000 ) ) ;
#187 = ORIENTED_EDGE ( 'NONE', *, *, #102, .F. ) ;
#188 = PERSON_AND_ORGANIZATION ( #177, #212 ) ;
#189 = VECTOR ( 'NONE', #255, 1000.000000000000000 ) ;
#190 = ORIENTED_EDGE ( 'NONE', *, *, #215, .T. ) ;
#191 = EDGE_CURVE ( 'NONE', #154, #57, #84, .T. ) ;
#192 = COORDINATED_UNIVERSAL_TIME_OFFSET ( 1, 0, .AHEAD. ) ;
#193 = ORIENTED_EDGE ( 'NONE', *, *, #38, .F. ) ;
#194 = EDGE_LOOP ( 'NONE', ( #37, #97 ) ) ;
#195 = APPLICATION_PROTOCOL_DEFINITION ( 'international standard', 'config_control_design', 1994, #214 ) ;
#196 = EDGE_LOOP ( 'NONE', ( #155, #35, #174, #116 ) ) ;
#197 = CARTESIAN_POINT ( 'NONE',  ( 0.000000000000000000, 0.000000000000000000, 7.000000000000000000 ) ) ;
#198 = CIRCLE ( 'NONE', #52, 12.00000000000000178 ) ;
#199 = AXIS2_PLACEMENT_3D ( 'NONE', #70, #225, #48 ) ;
#200 = APPLICATION_PROTOCOL_DEFINITION ( 'international standard', 'config_control_design', 1994, #226 ) ;
#201 = ADVANCED_FACE ( 'NONE', ( #129 ), #165, .T. ) ;
#202 = CC_DESIGN_DATE_AND_TIME_ASSIGNMENT ( #75, #17, ( #18 ) ) ;
#203 = DIRECTION ( 'NONE',  ( -0.000000000000000000, -0.000000000000000000, -1.000000000000000000 ) ) ;
#204 = DIRECTION ( 'NONE',  ( -1.000000000000000000, 0.000000000000000000, 0.000000000000000000 ) ) ;
#205 = DATE_AND_TIME ( #41, #93 ) ;
#206 = FACE_OUTER_BOUND ( 'NONE', #81, .T. ) ;
#207 = EDGE_CURVE ( 'NONE', #133, #252, #198, .T. ) ;
#208 = DIRECTION ( 'NONE',  ( -0.000000000000000000, -0.000000000000000000, -1.000000000000000000 ) ) ;
#209 = VERTEX_POINT ( 'NONE', #220 ) ;
#210 = DIRECTION ( 'NONE',  ( 1.000000000000000000, 0.000000000000000000, -0.000000000000000000 ) ) ;
#211 = PERSON_AND_ORGANIZATION_ROLE ( 'design_supplier' ) ;
#212 = ORGANIZATION ( 'NEURÈENÝ', 'NEURÈENÝ', '' ) ;
#213 = DIRECTION ( 'NONE',  ( 0.000000000000000000, 0.000000000000000000, 1.000000000000000000 ) ) ;
#214 = APPLICATION_CONTEXT ( 'configuration controlled 3d designs of mechanical parts and assemblies' ) ;
#215 = EDGE_CURVE ( 'NONE', #57, #252, #4, .T. ) ;
#216 = VECTOR ( 'NONE', #66, 1000.000000000000000 ) ;
#217 = ORIENTED_EDGE ( 'NONE', *, *, #135, .T. ) ;
#218 = COORDINATED_UNIVERSAL_TIME_OFFSET ( 1, 0, .AHEAD. ) ;
#219 = AXIS2_PLACEMENT_3D ( 'NONE', #127, #28, #112 ) ;
#220 = CARTESIAN_POINT ( 'NONE',  ( -9.000000000000000000, 0.000000000000000000, 7.000000000000000000 ) ) ;
#221 = DIRECTION ( 'NONE',  ( 1.000000000000000000, 0.000000000000000000, 0.000000000000000000 ) ) ;
#222 = APPROVAL_ROLE ( '' ) ;
#223 = CARTESIAN_POINT ( 'NONE',  ( 0.000000000000000000, 0.000000000000000000, 7.000000000000000000 ) ) ;
#224 = APPROVAL ( #151, 'NEURÈENÝ' ) ;
#225 = DIRECTION ( 'NONE',  ( -0.000000000000000000, -0.000000000000000000, -1.000000000000000000 ) ) ;
#226 = APPLICATION_CONTEXT ( 'configuration controlled 3d designs of mechanical parts and assemblies' ) ;
#227 = CARTESIAN_POINT ( 'NONE',  ( 0.000000000000000000, 0.000000000000000000, 7.000000000000000000 ) ) ;
#228 = ORIENTED_EDGE ( 'NONE', *, *, #234, .F. ) ;
#229 = LOCAL_TIME ( 11, 42, 0.000000000000000000, #115 ) ;
#230 = DATE_AND_TIME ( #22, #229 ) ;
#231 = DATE_AND_TIME ( #15, #1 ) ;
#232 = VERTEX_POINT ( 'NONE', #27 ) ;
#233 = APPROVAL ( #80, 'NEURÈENÝ' ) ;
#234 = EDGE_CURVE ( 'NONE', #232, #209, #79, .T. ) ;
#235 = SECURITY_CLASSIFICATION_LEVEL ( 'unclassified' ) ;
#236 = DIRECTION ( 'NONE',  ( 0.000000000000000000, 0.000000000000000000, 1.000000000000000000 ) ) ;
#237 = CARTESIAN_POINT ( 'NONE',  ( 12.00000000000000178, 1.469576158976824144E-15, 7.000000000000000000 ) ) ;
#238 = DATE_TIME_ROLE ( 'classification_date' ) ;
#239 = AXIS2_PLACEMENT_3D ( 'NONE', #7, #147, #73 ) ;
#240 = DIRECTION ( 'NONE',  ( -0.000000000000000000, -0.000000000000000000, -1.000000000000000000 ) ) ;
#241 = DIRECTION ( 'NONE',  ( 1.000000000000000000, 0.000000000000000000, 0.000000000000000000 ) ) ;
#242 = CARTESIAN_POINT ( 'NONE',  ( 0.000000000000000000, 0.000000000000000000, 0.000000000000000000 ) ) ;
#243 = ADVANCED_FACE ( 'NONE', ( #184, #9 ), #91, .T. ) ;
#244 = FACE_OUTER_BOUND ( 'NONE', #113, .T. ) ;
#245 = ORIENTED_EDGE ( 'NONE', *, *, #24, .T. ) ;
#246 = CIRCLE ( 'NONE', #13, 9.000000000000000000 ) ;
#247 = PRODUCT_DEFINITION_FORMATION_WITH_SPECIFIED_SOURCE ( 'LIBOVOLNÝ', '', #99, .NOT_KNOWN. ) ;
#248 = PERSON_AND_ORGANIZATION ( #177, #212 ) ;
#249 = APPROVAL_ROLE ( '' ) ;
#250 = FACE_OUTER_BOUND ( 'NONE', #36, .T. ) ;
#251 = DIRECTION ( 'NONE',  ( 1.000000000000000000, 0.000000000000000000, 0.000000000000000000 ) ) ;
#252 = VERTEX_POINT ( 'NONE', #31 ) ;
#253 = APPROVAL_PERSON_ORGANIZATION ( #248, #233, #249 ) ;
#254 = ORIENTED_EDGE ( 'NONE', *, *, #102, .T. ) ;
#255 = DIRECTION ( 'NONE',  ( -0.000000000000000000, -0.000000000000000000, -1.000000000000000000 ) ) ;
ENDSEC;
END-ISO-10303-21;
