ISO-10303-21;
HEADER;
FILE_DESCRIPTION (( 'STEP AP203' ),
    '1' );
FILE_NAME ('e333.STEP',
    '2023-02-12T12:08:58',
    ( '' ),
    ( '' ),
    'SwSTEP 2.0',
    'SolidWorks 2019',
    '' );
FILE_SCHEMA (( 'CONFIG_CONTROL_DESIGN' ));
ENDSEC;

DATA;
#1 = DIRECTION ( 'NONE',  ( 0.000000000000000000, 0.000000000000000000, 1.000000000000000000 ) ) ;
#2 = APPLICATION_PROTOCOL_DEFINITION ( 'international standard', 'config_control_design', 1994, #139 ) ;
#3 = ADVANCED_FACE ( 'NONE', ( #248 ), #107, .T. ) ;
#4 = APPROVAL_ROLE ( '' ) ;
#5 = AXIS2_PLACEMENT_3D ( 'NONE', #118, #175, #152 ) ;
#6 = EDGE_LOOP ( 'NONE', ( #246, #127, #144, #200 ) ) ;
#7 = PERSON_AND_ORGANIZATION_ROLE ( 'design_supplier' ) ;
#8 = VERTEX_POINT ( 'NONE', #250 ) ;
#9 = CALENDAR_DATE ( 2023, 12, 2 ) ;
#10 = PRODUCT_DEFINITION ( 'NEZNÁMÝ', '', #79, #208 ) ;
#11 = FACE_OUTER_BOUND ( 'NONE', #6, .T. ) ;
#12 = EDGE_CURVE ( 'NONE', #32, #84, #71, .T. ) ;
#13 = AXIS2_PLACEMENT_3D ( 'NONE', #18, #21, #75 ) ;
#14 = LOCAL_TIME ( 13, 8, 58.00000000000000000, #239 ) ;
#15 = EDGE_LOOP ( 'NONE', ( #34, #210 ) ) ;
#16 = DIRECTION ( 'NONE',  ( 0.000000000000000000, 0.000000000000000000, 1.000000000000000000 ) ) ;
#17 = DIRECTION ( 'NONE',  ( 1.000000000000000000, 0.000000000000000000, 0.000000000000000000 ) ) ;
#18 = CARTESIAN_POINT ( 'NONE',  ( 0.000000000000000000, 0.000000000000000000, 5.000000000000000000 ) ) ;
#19 = DIRECTION ( 'NONE',  ( 1.000000000000000000, 0.000000000000000000, 0.000000000000000000 ) ) ;
#20 = PERSON ( 'NEURÈENÝ', 'NEURÈENÝ', 'NEURÈENÝ', ('NEURÈENÝ'), ('NEURÈENÝ'), ('NEURÈENÝ') ) ;
#21 = DIRECTION ( 'NONE',  ( 0.000000000000000000, 0.000000000000000000, 1.000000000000000000 ) ) ;
#22 = DIRECTION ( 'NONE',  ( 1.000000000000000000, 0.000000000000000000, 0.000000000000000000 ) ) ;
#23 = DIRECTION ( 'NONE',  ( 1.000000000000000000, 0.000000000000000000, 0.000000000000000000 ) ) ;
#24 = CIRCLE ( 'NONE', #173, 3.250000000000000444 ) ;
#25 = CC_DESIGN_PERSON_AND_ORGANIZATION_ASSIGNMENT ( #114, #28, ( #177 ) ) ;
#26 = DATE_AND_TIME ( #9, #80 ) ;
#27 = CC_DESIGN_PERSON_AND_ORGANIZATION_ASSIGNMENT ( #182, #221, ( #79 ) ) ;
#28 = PERSON_AND_ORGANIZATION_ROLE ( 'design_owner' ) ;
#29 = CIRCLE ( 'NONE', #13, 6.000000000000000888 ) ;
#30 = APPROVAL_DATE_TIME ( #157, #97 ) ;
#31 = CIRCLE ( 'NONE', #101, 6.000000000000000888 ) ;
#32 = VERTEX_POINT ( 'NONE', #50 ) ;
#33 = AXIS2_PLACEMENT_3D ( 'NONE', #150, #38, #115 ) ;
#34 = ORIENTED_EDGE ( 'NONE', *, *, #189, .T. ) ;
#35 = CARTESIAN_POINT ( 'NONE',  ( 0.000000000000000000, 0.000000000000000000, 0.000000000000000000 ) ) ;
#36 = CARTESIAN_POINT ( 'NONE',  ( 0.000000000000000000, 0.000000000000000000, 100.0000000000000000 ) ) ;
#37 = DIRECTION ( 'NONE',  ( -1.000000000000000000, 0.000000000000000000, 0.000000000000000000 ) ) ;
#38 = DIRECTION ( 'NONE',  ( 0.000000000000000000, 0.000000000000000000, 1.000000000000000000 ) ) ;
#39 = SECURITY_CLASSIFICATION ( '', '', #137 ) ;
#40 = CARTESIAN_POINT ( 'NONE',  ( 0.000000000000000000, 0.000000000000000000, 0.000000000000000000 ) ) ;
#41 = EDGE_CURVE ( 'NONE', #70, #84, #247, .T. ) ;
#42 = DIRECTION ( 'NONE',  ( 0.000000000000000000, 0.000000000000000000, 1.000000000000000000 ) ) ;
#43 = APPROVAL_STATUS ( 'not_yet_approved' ) ;
#44 = PERSON_AND_ORGANIZATION ( #20, #178 ) ;
#45 = EDGE_LOOP ( 'NONE', ( #68, #207, #242, #206 ) ) ;
#46 = ADVANCED_FACE ( 'NONE', ( #11 ), #85, .T. ) ;
#47 = DIRECTION ( 'NONE',  ( 1.000000000000000000, 0.000000000000000000, -0.000000000000000000 ) ) ;
#48 = VERTEX_POINT ( 'NONE', #113 ) ;
#49 = LOCAL_TIME ( 13, 8, 58.00000000000000000, #122 ) ;
#50 = CARTESIAN_POINT ( 'NONE',  ( 6.000000000000000888, 7.347880794884120722E-16, 5.000000000000000000 ) ) ;
#51 = CC_DESIGN_APPROVAL ( #97, ( #10 ) ) ;
#52 = CARTESIAN_POINT ( 'NONE',  ( 6.000000000000000888, 7.347880794884120722E-16, 0.000000000000000000 ) ) ;
#53 = EDGE_CURVE ( 'NONE', #123, #104, #215, .T. ) ;
#54 = DIRECTION ( 'NONE',  ( -0.000000000000000000, -0.000000000000000000, -1.000000000000000000 ) ) ;
#55 = CARTESIAN_POINT ( 'NONE',  ( 3.250000000000000444, 3.980102097228898231E-16, 5.000000000000000000 ) ) ;
#56 = ADVANCED_FACE ( 'NONE', ( #174 ), #254, .T. ) ;
#57 = VECTOR ( 'NONE', #77, 1000.000000000000000 ) ;
#58 = DIRECTION ( 'NONE',  ( 0.000000000000000000, 0.000000000000000000, 1.000000000000000000 ) ) ;
#59 = MECHANICAL_CONTEXT ( 'NONE', #139, 'mechanical' ) ;
#60 = PERSON_AND_ORGANIZATION ( #20, #178 ) ;
#61 = CIRCLE ( 'NONE', #102, 3.250000000000000444 ) ;
#62 = CIRCLE ( 'NONE', #184, 3.250000000000000444 ) ;
#63 = CALENDAR_DATE ( 2023, 12, 2 ) ;
#64 = ORIENTED_EDGE ( 'NONE', *, *, #176, .F. ) ;
#65 = APPROVAL_ROLE ( '' ) ;
#66 = ORIENTED_EDGE ( 'NONE', *, *, #176, .T. ) ;
#67 = PERSON_AND_ORGANIZATION ( #20, #178 ) ;
#68 = ORIENTED_EDGE ( 'NONE', *, *, #163, .F. ) ;
#69 = EDGE_CURVE ( 'NONE', #84, #70, #31, .T. ) ;
#70 = VERTEX_POINT ( 'NONE', #110 ) ;
#71 = LINE ( 'NONE', #230, #235 ) ;
#72 = EDGE_CURVE ( 'NONE', #32, #8, #29, .T. ) ;
#73 = AXIS2_PLACEMENT_3D ( 'NONE', #255, #154, #197 ) ;
#74 = CARTESIAN_POINT ( 'NONE',  ( -6.000000000000000888, 0.000000000000000000, 5.000000000000000000 ) ) ;
#75 = DIRECTION ( 'NONE',  ( 1.000000000000000000, 0.000000000000000000, 0.000000000000000000 ) ) ;
#76 =( LENGTH_UNIT ( ) NAMED_UNIT ( * ) SI_UNIT ( .MILLI., .METRE. ) );
#77 = DIRECTION ( 'NONE',  ( -0.000000000000000000, -0.000000000000000000, -1.000000000000000000 ) ) ;
#78 = AXIS2_PLACEMENT_3D ( 'NONE', #213, #130, #233 ) ;
#79 = PRODUCT_DEFINITION_FORMATION_WITH_SPECIFIED_SOURCE ( 'LIBOVOLNÝ', '', #177, .NOT_KNOWN. ) ;
#80 = LOCAL_TIME ( 13, 8, 58.00000000000000000, #159 ) ;
#81 = APPROVAL_STATUS ( 'not_yet_approved' ) ;
#82 = ORIENTED_EDGE ( 'NONE', *, *, #141, .T. ) ;
#83 = PERSON_AND_ORGANIZATION_ROLE ( 'classification_officer' ) ;
#84 = VERTEX_POINT ( 'NONE', #52 ) ;
#85 = CYLINDRICAL_SURFACE ( 'NONE', #90, 6.000000000000000888 ) ;
#86 = APPROVAL_DATE_TIME ( #169, #187 ) ;
#87 = DIRECTION ( 'NONE',  ( 0.000000000000000000, 0.000000000000000000, 1.000000000000000000 ) ) ;
#88 = FACE_OUTER_BOUND ( 'NONE', #222, .T. ) ;
#89 = CARTESIAN_POINT ( 'NONE',  ( 0.000000000000000000, 0.000000000000000000, 0.000000000000000000 ) ) ;
#90 = AXIS2_PLACEMENT_3D ( 'NONE', #162, #245, #37 ) ;
#91 = DIRECTION ( 'NONE',  ( -1.000000000000000000, 0.000000000000000000, 0.000000000000000000 ) ) ;
#92 = CARTESIAN_POINT ( 'NONE',  ( 3.250000000000000444, 3.980102097228898231E-16, 100.0000000000000000 ) ) ;
#93 = PLANE ( 'NONE',  #33 ) ;
#94 = LINE ( 'NONE', #92, #57 ) ;
#95 = VECTOR ( 'NONE', #54, 1000.000000000000000 ) ;
#96 = APPROVAL_PERSON_ORGANIZATION ( #243, #187, #4 ) ;
#97 = APPROVAL ( #203, 'NEURÈENÝ' ) ;
#98 = MANIFOLD_SOLID_BREP ( 'Pøidat vysunutím3', #135 ) ;
#99 = DATE_TIME_ROLE ( 'classification_date' ) ;
#100 = PRODUCT_DEFINITION_SHAPE ( 'NONE', 'NONE',  #10 ) ;
#101 = AXIS2_PLACEMENT_3D ( 'NONE', #35, #16, #214 ) ;
#102 = AXIS2_PLACEMENT_3D ( 'NONE', #237, #1, #22 ) ;
#103 = ORIENTED_EDGE ( 'NONE', *, *, #12, .F. ) ;
#104 = VERTEX_POINT ( 'NONE', #149 ) ;
#105 = CALENDAR_DATE ( 2023, 12, 2 ) ;
#106 = CARTESIAN_POINT ( 'NONE',  ( 0.000000000000000000, 0.000000000000000000, 0.000000000000000000 ) ) ;
#107 = PLANE ( 'NONE',  #228 ) ;
#108 = VECTOR ( 'NONE', #191, 1000.000000000000000 ) ;
#109 = DIRECTION ( 'NONE',  ( 0.000000000000000000, 0.000000000000000000, 1.000000000000000000 ) ) ;
#110 = CARTESIAN_POINT ( 'NONE',  ( -6.000000000000000888, 0.000000000000000000, 0.000000000000000000 ) ) ;
#111 = ADVANCED_FACE ( 'NONE', ( #194 ), #251, .T. ) ;
#112 = DIRECTION ( 'NONE',  ( -0.000000000000000000, -0.000000000000000000, -1.000000000000000000 ) ) ;
#113 = CARTESIAN_POINT ( 'NONE',  ( 3.250000000000000444, 3.980102097228898231E-16, 100.0000000000000000 ) ) ;
#114 = PERSON_AND_ORGANIZATION ( #20, #178 ) ;
#115 = DIRECTION ( 'NONE',  ( 1.000000000000000000, 0.000000000000000000, -0.000000000000000000 ) ) ;
#116 = DIRECTION ( 'NONE',  ( 0.000000000000000000, 0.000000000000000000, 1.000000000000000000 ) ) ;
#117 = LOCAL_TIME ( 13, 8, 58.00000000000000000, #180 ) ;
#118 = CARTESIAN_POINT ( 'NONE',  ( 0.000000000000000000, 0.000000000000000000, 5.000000000000000000 ) ) ;
#119 = ADVANCED_BREP_SHAPE_REPRESENTATION ( 'e333', ( #98, #205 ), #145 ) ;
#120 = COORDINATED_UNIVERSAL_TIME_OFFSET ( 1, 0, .AHEAD. ) ;
#121 = CC_DESIGN_PERSON_AND_ORGANIZATION_ASSIGNMENT ( #223, #83, ( #39 ) ) ;
#122 = COORDINATED_UNIVERSAL_TIME_OFFSET ( 1, 0, .AHEAD. ) ;
#123 = VERTEX_POINT ( 'NONE', #190 ) ;
#124 = ORIENTED_EDGE ( 'NONE', *, *, #226, .F. ) ;
#125 = CC_DESIGN_APPROVAL ( #195, ( #79 ) ) ;
#126 = ADVANCED_FACE ( 'NONE', ( #172, #88 ), #93, .T. ) ;
#127 = ORIENTED_EDGE ( 'NONE', *, *, #12, .T. ) ;
#128 = AXIS2_PLACEMENT_3D ( 'NONE', #89, #232, #192 ) ;
#129 = FACE_OUTER_BOUND ( 'NONE', #143, .T. ) ;
#130 = DIRECTION ( 'NONE',  ( -0.000000000000000000, -0.000000000000000000, -1.000000000000000000 ) ) ;
#131 = CARTESIAN_POINT ( 'NONE',  ( 0.000000000000000000, 0.000000000000000000, 100.0000000000000000 ) ) ;
#132 = CC_DESIGN_DATE_AND_TIME_ASSIGNMENT ( #26, #99, ( #39 ) ) ;
#133 = CYLINDRICAL_SURFACE ( 'NONE', #229, 3.250000000000000444 ) ;
#134 = DIRECTION ( 'NONE',  ( -1.000000000000000000, 0.000000000000000000, 0.000000000000000000 ) ) ;
#135 = CLOSED_SHELL ( 'NONE', ( #171, #46, #56, #126, #161, #111, #3 ) ) ;
#136 = DATE_AND_TIME ( #105, #49 ) ;
#137 = SECURITY_CLASSIFICATION_LEVEL ( 'unclassified' ) ;
#138 = PRODUCT_RELATED_PRODUCT_CATEGORY ( 'detail', '', ( #177 ) ) ;
#139 = APPLICATION_CONTEXT ( 'configuration controlled 3d designs of mechanical parts and assemblies' ) ;
#140 = EDGE_LOOP ( 'NONE', ( #64, #160 ) ) ;
#141 = EDGE_CURVE ( 'NONE', #8, #70, #231, .T. ) ;
#142 = DATE_AND_TIME ( #155, #117 ) ;
#143 = EDGE_LOOP ( 'NONE', ( #183, #185 ) ) ;
#144 = ORIENTED_EDGE ( 'NONE', *, *, #69, .T. ) ;
#145 =( GEOMETRIC_REPRESENTATION_CONTEXT ( 3 ) GLOBAL_UNCERTAINTY_ASSIGNED_CONTEXT ( ( #165 ) ) GLOBAL_UNIT_ASSIGNED_CONTEXT ( ( #76, #151, #253 ) ) REPRESENTATION_CONTEXT ( 'NONE', 'WORKASPACE' ) );
#146 = EDGE_LOOP ( 'NONE', ( #103, #158, #82, #181 ) ) ;
#147 = AXIS2_PLACEMENT_3D ( 'NONE', #36, #112, #91 ) ;
#148 = LOCAL_TIME ( 13, 8, 58.00000000000000000, #120 ) ;
#149 = CARTESIAN_POINT ( 'NONE',  ( -3.250000000000000444, 0.000000000000000000, 5.000000000000000000 ) ) ;
#150 = CARTESIAN_POINT ( 'NONE',  ( 0.000000000000000000, 0.000000000000000000, 5.000000000000000000 ) ) ;
#151 =( NAMED_UNIT ( * ) PLANE_ANGLE_UNIT ( ) SI_UNIT ( $, .RADIAN. ) );
#152 = DIRECTION ( 'NONE',  ( 1.000000000000000000, 0.000000000000000000, 0.000000000000000000 ) ) ;
#153 = CARTESIAN_POINT ( 'NONE',  ( 0.000000000000000000, 0.000000000000000000, 100.0000000000000000 ) ) ;
#154 = DIRECTION ( 'NONE',  ( 0.000000000000000000, 0.000000000000000000, 1.000000000000000000 ) ) ;
#155 = CALENDAR_DATE ( 2023, 12, 2 ) ;
#156 = CC_DESIGN_APPROVAL ( #187, ( #39 ) ) ;
#157 = DATE_AND_TIME ( #63, #148 ) ;
#158 = ORIENTED_EDGE ( 'NONE', *, *, #249, .F. ) ;
#159 = COORDINATED_UNIVERSAL_TIME_OFFSET ( 1, 0, .AHEAD. ) ;
#160 = ORIENTED_EDGE ( 'NONE', *, *, #236, .F. ) ;
#161 = ADVANCED_FACE ( 'NONE', ( #129 ), #212, .F. ) ;
#162 = CARTESIAN_POINT ( 'NONE',  ( 0.000000000000000000, 0.000000000000000000, 5.000000000000000000 ) ) ;
#163 = EDGE_CURVE ( 'NONE', #48, #123, #24, .T. ) ;
#164 = ORIENTED_EDGE ( 'NONE', *, *, #249, .T. ) ;
#165 = UNCERTAINTY_MEASURE_WITH_UNIT (LENGTH_MEASURE( 1.000000000000000082E-05 ), #76, 'distance_accuracy_value', 'NONE');
#166 = ORIENTED_EDGE ( 'NONE', *, *, #72, .T. ) ;
#167 = CC_DESIGN_DATE_AND_TIME_ASSIGNMENT ( #142, #198, ( #10 ) ) ;
#168 = EDGE_LOOP ( 'NONE', ( #124, #202, #241, #66 ) ) ;
#169 = DATE_AND_TIME ( #209, #14 ) ;
#170 = CARTESIAN_POINT ( 'NONE',  ( -3.250000000000000444, 0.000000000000000000, 100.0000000000000000 ) ) ;
#171 = ADVANCED_FACE ( 'NONE', ( #219 ), #133, .T. ) ;
#172 = FACE_BOUND ( 'NONE', #140, .T. ) ;
#173 = AXIS2_PLACEMENT_3D ( 'NONE', #153, #58, #17 ) ;
#174 = FACE_OUTER_BOUND ( 'NONE', #146, .T. ) ;
#175 = DIRECTION ( 'NONE',  ( 0.000000000000000000, 0.000000000000000000, 1.000000000000000000 ) ) ;
#176 = EDGE_CURVE ( 'NONE', #104, #224, #61, .T. ) ;
#177 = PRODUCT ( 'e333', 'e333', '', ( #59 ) ) ;
#178 = ORGANIZATION ( 'NEURÈENÝ', 'NEURÈENÝ', '' ) ;
#179 = APPLICATION_CONTEXT ( 'configuration controlled 3d designs of mechanical parts and assemblies' ) ;
#180 = COORDINATED_UNIVERSAL_TIME_OFFSET ( 1, 0, .AHEAD. ) ;
#181 = ORIENTED_EDGE ( 'NONE', *, *, #41, .T. ) ;
#182 = PERSON_AND_ORGANIZATION ( #20, #178 ) ;
#183 = ORIENTED_EDGE ( 'NONE', *, *, #41, .F. ) ;
#184 = AXIS2_PLACEMENT_3D ( 'NONE', #196, #42, #19 ) ;
#185 = ORIENTED_EDGE ( 'NONE', *, *, #69, .F. ) ;
#186 = SHAPE_DEFINITION_REPRESENTATION ( #100, #119 ) ;
#187 = APPROVAL ( #43, 'NEURÈENÝ' ) ;
#188 = CARTESIAN_POINT ( 'NONE',  ( 0.000000000000000000, 0.000000000000000000, 100.0000000000000000 ) ) ;
#189 = EDGE_CURVE ( 'NONE', #123, #48, #62, .T. ) ;
#190 = CARTESIAN_POINT ( 'NONE',  ( -3.250000000000000444, 0.000000000000000000, 100.0000000000000000 ) ) ;
#191 = DIRECTION ( 'NONE',  ( -0.000000000000000000, -0.000000000000000000, -1.000000000000000000 ) ) ;
#192 = DIRECTION ( 'NONE',  ( 1.000000000000000000, 0.000000000000000000, -0.000000000000000000 ) ) ;
#193 = CIRCLE ( 'NONE', #73, 6.000000000000000888 ) ;
#194 = FACE_OUTER_BOUND ( 'NONE', #168, .T. ) ;
#195 = APPROVAL ( #81, 'NEURÈENÝ' ) ;
#196 = CARTESIAN_POINT ( 'NONE',  ( 0.000000000000000000, 0.000000000000000000, 100.0000000000000000 ) ) ;
#197 = DIRECTION ( 'NONE',  ( 1.000000000000000000, 0.000000000000000000, 0.000000000000000000 ) ) ;
#198 = DATE_TIME_ROLE ( 'creation_date' ) ;
#199 = PERSON_AND_ORGANIZATION_ROLE ( 'creator' ) ;
#200 = ORIENTED_EDGE ( 'NONE', *, *, #141, .F. ) ;
#201 = APPROVAL_DATE_TIME ( #136, #195 ) ;
#202 = ORIENTED_EDGE ( 'NONE', *, *, #189, .F. ) ;
#203 = APPROVAL_STATUS ( 'not_yet_approved' ) ;
#204 = DIRECTION ( 'NONE',  ( -0.000000000000000000, -0.000000000000000000, -1.000000000000000000 ) ) ;
#205 = AXIS2_PLACEMENT_3D ( 'NONE', #40, #116, #23 ) ;
#206 = ORIENTED_EDGE ( 'NONE', *, *, #53, .F. ) ;
#207 = ORIENTED_EDGE ( 'NONE', *, *, #226, .T. ) ;
#208 = DESIGN_CONTEXT ( 'detailed design', #179, 'design' ) ;
#209 = CALENDAR_DATE ( 2023, 12, 2 ) ;
#210 = ORIENTED_EDGE ( 'NONE', *, *, #163, .T. ) ;
#211 = APPROVAL_PERSON_ORGANIZATION ( #60, #195, #65 ) ;
#212 = PLANE ( 'NONE',  #128 ) ;
#213 = CARTESIAN_POINT ( 'NONE',  ( 0.000000000000000000, 0.000000000000000000, 5.000000000000000000 ) ) ;
#214 = DIRECTION ( 'NONE',  ( 1.000000000000000000, 0.000000000000000000, 0.000000000000000000 ) ) ;
#215 = LINE ( 'NONE', #170, #108 ) ;
#216 = DIRECTION ( 'NONE',  ( -0.000000000000000000, -0.000000000000000000, -1.000000000000000000 ) ) ;
#217 = AXIS2_PLACEMENT_3D ( 'NONE', #106, #109, #227 ) ;
#218 = CIRCLE ( 'NONE', #5, 3.250000000000000444 ) ;
#219 = FACE_OUTER_BOUND ( 'NONE', #45, .T. ) ;
#220 = APPROVAL_PERSON_ORGANIZATION ( #240, #97, #225 ) ;
#221 = PERSON_AND_ORGANIZATION_ROLE ( 'creator' ) ;
#222 = EDGE_LOOP ( 'NONE', ( #164, #166 ) ) ;
#223 = PERSON_AND_ORGANIZATION ( #20, #178 ) ;
#224 = VERTEX_POINT ( 'NONE', #55 ) ;
#225 = APPROVAL_ROLE ( '' ) ;
#226 = EDGE_CURVE ( 'NONE', #48, #224, #94, .T. ) ;
#227 = DIRECTION ( 'NONE',  ( 1.000000000000000000, 0.000000000000000000, 0.000000000000000000 ) ) ;
#228 = AXIS2_PLACEMENT_3D ( 'NONE', #188, #87, #47 ) ;
#229 = AXIS2_PLACEMENT_3D ( 'NONE', #131, #216, #134 ) ;
#230 = CARTESIAN_POINT ( 'NONE',  ( 6.000000000000000888, 7.347880794884120722E-16, 5.000000000000000000 ) ) ;
#231 = LINE ( 'NONE', #74, #95 ) ;
#232 = DIRECTION ( 'NONE',  ( 0.000000000000000000, 0.000000000000000000, 1.000000000000000000 ) ) ;
#233 = DIRECTION ( 'NONE',  ( -1.000000000000000000, 0.000000000000000000, 0.000000000000000000 ) ) ;
#234 = CC_DESIGN_PERSON_AND_ORGANIZATION_ASSIGNMENT ( #67, #7, ( #79 ) ) ;
#235 = VECTOR ( 'NONE', #204, 1000.000000000000000 ) ;
#236 = EDGE_CURVE ( 'NONE', #224, #104, #218, .T. ) ;
#237 = CARTESIAN_POINT ( 'NONE',  ( 0.000000000000000000, 0.000000000000000000, 5.000000000000000000 ) ) ;
#238 = APPLICATION_PROTOCOL_DEFINITION ( 'international standard', 'config_control_design', 1994, #179 ) ;
#239 = COORDINATED_UNIVERSAL_TIME_OFFSET ( 1, 0, .AHEAD. ) ;
#240 = PERSON_AND_ORGANIZATION ( #20, #178 ) ;
#241 = ORIENTED_EDGE ( 'NONE', *, *, #53, .T. ) ;
#242 = ORIENTED_EDGE ( 'NONE', *, *, #236, .T. ) ;
#243 = PERSON_AND_ORGANIZATION ( #20, #178 ) ;
#244 = CC_DESIGN_PERSON_AND_ORGANIZATION_ASSIGNMENT ( #44, #199, ( #10 ) ) ;
#245 = DIRECTION ( 'NONE',  ( -0.000000000000000000, -0.000000000000000000, -1.000000000000000000 ) ) ;
#246 = ORIENTED_EDGE ( 'NONE', *, *, #72, .F. ) ;
#247 = CIRCLE ( 'NONE', #217, 6.000000000000000888 ) ;
#248 = FACE_OUTER_BOUND ( 'NONE', #15, .T. ) ;
#249 = EDGE_CURVE ( 'NONE', #8, #32, #193, .T. ) ;
#250 = CARTESIAN_POINT ( 'NONE',  ( -6.000000000000000888, 0.000000000000000000, 5.000000000000000000 ) ) ;
#251 = CYLINDRICAL_SURFACE ( 'NONE', #147, 3.250000000000000444 ) ;
#252 = CC_DESIGN_SECURITY_CLASSIFICATION ( #39, ( #79 ) ) ;
#253 =( NAMED_UNIT ( * ) SI_UNIT ( $, .STERADIAN. ) SOLID_ANGLE_UNIT ( ) );
#254 = CYLINDRICAL_SURFACE ( 'NONE', #78, 6.000000000000000888 ) ;
#255 = CARTESIAN_POINT ( 'NONE',  ( 0.000000000000000000, 0.000000000000000000, 5.000000000000000000 ) ) ;
ENDSEC;
END-ISO-10303-21;
