ISO-10303-21;
HEADER;
FILE_DESCRIPTION (( 'STEP AP203' ),
    '1' );
FILE_NAME ('28ee.STEP',
    '2023-02-12T11:14:36',
    ( '' ),
    ( '' ),
    'SwSTEP 2.0',
    'SolidWorks 2019',
    '' );
FILE_SCHEMA (( 'CONFIG_CONTROL_DESIGN' ));
ENDSEC;

DATA;
#1 = EDGE_LOOP ( 'NONE', ( #109, #36, #92, #191 ) ) ;
#2 = DIRECTION ( 'NONE',  ( 1.000000000000000000, 0.000000000000000000, 0.000000000000000000 ) ) ;
#3 = ADVANCED_FACE ( 'NONE', ( #38 ), #89, .T. ) ;
#4 = DIRECTION ( 'NONE',  ( 1.000000000000000000, 0.000000000000000000, -0.000000000000000000 ) ) ;
#5 = LOCAL_TIME ( 12, 14, 36.00000000000000000, #25 ) ;
#6 = DIRECTION ( 'NONE',  ( 1.000000000000000000, 0.000000000000000000, 0.000000000000000000 ) ) ;
#7 = EDGE_CURVE ( 'NONE', #95, #18, #53, .T. ) ;
#8 = FACE_OUTER_BOUND ( 'NONE', #73, .T. ) ;
#9 = CALENDAR_DATE ( 2023, 12, 2 ) ;
#10 = FACE_OUTER_BOUND ( 'NONE', #33, .T. ) ;
#11 = APPROVAL_ROLE ( '' ) ;
#12 = CC_DESIGN_DATE_AND_TIME_ASSIGNMENT ( #159, #145, ( #221 ) ) ;
#13 = COORDINATED_UNIVERSAL_TIME_OFFSET ( 1, 0, .AHEAD. ) ;
#14 = CC_DESIGN_APPROVAL ( #124, ( #221 ) ) ;
#15 = EDGE_CURVE ( 'NONE', #229, #94, #184, .T. ) ;
#16 = ORIENTED_EDGE ( 'NONE', *, *, #15, .F. ) ;
#17 = ORIENTED_EDGE ( 'NONE', *, *, #163, .T. ) ;
#18 = VERTEX_POINT ( 'NONE', #194 ) ;
#19 = CARTESIAN_POINT ( 'NONE',  ( 0.000000000000000000, 0.000000000000000000, 5.000000000000000000 ) ) ;
#20 = EDGE_CURVE ( 'NONE', #18, #229, #153, .T. ) ;
#21 = CARTESIAN_POINT ( 'NONE',  ( 0.000000000000000000, 0.000000000000000000, 5.000000000000000000 ) ) ;
#22 = DIRECTION ( 'NONE',  ( 0.000000000000000000, 0.000000000000000000, 1.000000000000000000 ) ) ;
#23 = LINE ( 'NONE', #197, #190 ) ;
#24 = CARTESIAN_POINT ( 'NONE',  ( 0.000000000000000000, 0.000000000000000000, 5.000000000000000000 ) ) ;
#25 = COORDINATED_UNIVERSAL_TIME_OFFSET ( 1, 0, .AHEAD. ) ;
#26 =( LENGTH_UNIT ( ) NAMED_UNIT ( * ) SI_UNIT ( .MILLI., .METRE. ) );
#27 = DIRECTION ( 'NONE',  ( -0.000000000000000000, -0.000000000000000000, -1.000000000000000000 ) ) ;
#28 = APPROVAL_STATUS ( 'not_yet_approved' ) ;
#29 = AXIS2_PLACEMENT_3D ( 'NONE', #44, #39, #80 ) ;
#30 = LOCAL_TIME ( 12, 14, 36.00000000000000000, #179 ) ;
#31 =( NAMED_UNIT ( * ) PLANE_ANGLE_UNIT ( ) SI_UNIT ( $, .RADIAN. ) );
#32 = ORIENTED_EDGE ( 'NONE', *, *, #135, .F. ) ;
#33 = EDGE_LOOP ( 'NONE', ( #151, #169 ) ) ;
#34 = APPLICATION_CONTEXT ( 'configuration controlled 3d designs of mechanical parts and assemblies' ) ;
#35 = ORIENTED_EDGE ( 'NONE', *, *, #173, .F. ) ;
#36 = ORIENTED_EDGE ( 'NONE', *, *, #230, .T. ) ;
#37 = AXIS2_PLACEMENT_3D ( 'NONE', #160, #143, #250 ) ;
#38 = FACE_OUTER_BOUND ( 'NONE', #110, .T. ) ;
#39 = DIRECTION ( 'NONE',  ( 0.000000000000000000, 0.000000000000000000, 1.000000000000000000 ) ) ;
#40 = CYLINDRICAL_SURFACE ( 'NONE', #211, 5.500000000000000000 ) ;
#41 = AXIS2_PLACEMENT_3D ( 'NONE', #59, #134, #6 ) ;
#42 = CARTESIAN_POINT ( 'NONE',  ( -8.000000000000000000, 0.000000000000000000, 0.000000000000000000 ) ) ;
#43 = AXIS2_PLACEMENT_3D ( 'NONE', #21, #22, #101 ) ;
#44 = CARTESIAN_POINT ( 'NONE',  ( 0.000000000000000000, 0.000000000000000000, 5.000000000000000000 ) ) ;
#45 = FACE_OUTER_BOUND ( 'NONE', #149, .T. ) ;
#46 = CARTESIAN_POINT ( 'NONE',  ( 8.000000000000000000, 9.797174393178825657E-16, 5.000000000000000000 ) ) ;
#47 = CC_DESIGN_PERSON_AND_ORGANIZATION_ASSIGNMENT ( #141, #165, ( #198 ) ) ;
#48 = AXIS2_PLACEMENT_3D ( 'NONE', #178, #97, #4 ) ;
#49 = EDGE_CURVE ( 'NONE', #253, #251, #202, .T. ) ;
#50 = VERTEX_POINT ( 'NONE', #57 ) ;
#51 = ADVANCED_BREP_SHAPE_REPRESENTATION ( '28ee', ( #245, #99 ), #77 ) ;
#52 = ADVANCED_FACE ( 'NONE', ( #218 ), #40, .T. ) ;
#53 = CIRCLE ( 'NONE', #41, 5.500000000000000000 ) ;
#54 = EDGE_LOOP ( 'NONE', ( #16, #111 ) ) ;
#55 = DIRECTION ( 'NONE',  ( -0.000000000000000000, -0.000000000000000000, -1.000000000000000000 ) ) ;
#56 = ADVANCED_FACE ( 'NONE', ( #45 ), #238, .T. ) ;
#57 = CARTESIAN_POINT ( 'NONE',  ( 8.000000000000000000, 9.797174393178825657E-16, 0.000000000000000000 ) ) ;
#58 = CARTESIAN_POINT ( 'NONE',  ( 5.500000000000000000, 6.735557395310442023E-16, 200.0000000000000000 ) ) ;
#59 = CARTESIAN_POINT ( 'NONE',  ( 0.000000000000000000, 0.000000000000000000, 200.0000000000000000 ) ) ;
#60 = LOCAL_TIME ( 12, 14, 36.00000000000000000, #13 ) ;
#61 = PERSON_AND_ORGANIZATION ( #140, #249 ) ;
#62 = DIRECTION ( 'NONE',  ( -1.000000000000000000, 0.000000000000000000, 0.000000000000000000 ) ) ;
#63 = PERSON_AND_ORGANIZATION_ROLE ( 'creator' ) ;
#64 = EDGE_CURVE ( 'NONE', #50, #126, #118, .T. ) ;
#65 = APPROVAL_ROLE ( '' ) ;
#66 = EDGE_CURVE ( 'NONE', #251, #253, #152, .T. ) ;
#67 = SHAPE_DEFINITION_REPRESENTATION ( #172, #51 ) ;
#68 = PRODUCT ( '28ee', '28ee', '', ( #146 ) ) ;
#69 = AXIS2_PLACEMENT_3D ( 'NONE', #235, #158, #102 ) ;
#70 = CARTESIAN_POINT ( 'NONE',  ( 0.000000000000000000, 0.000000000000000000, 5.000000000000000000 ) ) ;
#71 = EDGE_LOOP ( 'NONE', ( #17, #207 ) ) ;
#72 = AXIS2_PLACEMENT_3D ( 'NONE', #19, #156, #216 ) ;
#73 = EDGE_LOOP ( 'NONE', ( #75, #125 ) ) ;
#74 = APPROVAL ( #28, 'NEURÈENÝ' ) ;
#75 = ORIENTED_EDGE ( 'NONE', *, *, #239, .F. ) ;
#76 = DIRECTION ( 'NONE',  ( -0.000000000000000000, -0.000000000000000000, -1.000000000000000000 ) ) ;
#77 =( GEOMETRIC_REPRESENTATION_CONTEXT ( 3 ) GLOBAL_UNCERTAINTY_ASSIGNED_CONTEXT ( ( #237 ) ) GLOBAL_UNIT_ASSIGNED_CONTEXT ( ( #26, #31, #87 ) ) REPRESENTATION_CONTEXT ( 'NONE', 'WORKASPACE' ) );
#78 = PLANE ( 'NONE',  #69 ) ;
#79 = FACE_OUTER_BOUND ( 'NONE', #71, .T. ) ;
#80 = DIRECTION ( 'NONE',  ( 1.000000000000000000, 0.000000000000000000, 0.000000000000000000 ) ) ;
#81 = COORDINATED_UNIVERSAL_TIME_OFFSET ( 1, 0, .AHEAD. ) ;
#82 = PLANE ( 'NONE',  #37 ) ;
#83 = CALENDAR_DATE ( 2023, 12, 2 ) ;
#84 = DATE_AND_TIME ( #201, #155 ) ;
#85 = PERSON_AND_ORGANIZATION_ROLE ( 'design_supplier' ) ;
#86 = DATE_TIME_ROLE ( 'classification_date' ) ;
#87 =( NAMED_UNIT ( * ) SI_UNIT ( $, .STERADIAN. ) SOLID_ANGLE_UNIT ( ) );
#88 = CC_DESIGN_PERSON_AND_ORGANIZATION_ASSIGNMENT ( #142, #63, ( #171 ) ) ;
#89 = CYLINDRICAL_SURFACE ( 'NONE', #133, 8.000000000000000000 ) ;
#90 = CC_DESIGN_PERSON_AND_ORGANIZATION_ASSIGNMENT ( #223, #243, ( #221 ) ) ;
#91 = CC_DESIGN_APPROVAL ( #129, ( #171 ) ) ;
#92 = ORIENTED_EDGE ( 'NONE', *, *, #185, .T. ) ;
#93 = ORIENTED_EDGE ( 'NONE', *, *, #20, .T. ) ;
#94 = VERTEX_POINT ( 'NONE', #112 ) ;
#95 = VERTEX_POINT ( 'NONE', #58 ) ;
#96 = CARTESIAN_POINT ( 'NONE',  ( -5.500000000000000000, 0.000000000000000000, 200.0000000000000000 ) ) ;
#97 = DIRECTION ( 'NONE',  ( 0.000000000000000000, 0.000000000000000000, 1.000000000000000000 ) ) ;
#98 = PERSON_AND_ORGANIZATION ( #140, #249 ) ;
#99 = AXIS2_PLACEMENT_3D ( 'NONE', #244, #225, #119 ) ;
#100 = DIRECTION ( 'NONE',  ( 1.000000000000000000, 0.000000000000000000, 0.000000000000000000 ) ) ;
#101 = DIRECTION ( 'NONE',  ( 1.000000000000000000, 0.000000000000000000, 0.000000000000000000 ) ) ;
#102 = DIRECTION ( 'NONE',  ( 1.000000000000000000, 0.000000000000000000, -0.000000000000000000 ) ) ;
#103 = APPROVAL_STATUS ( 'not_yet_approved' ) ;
#104 = APPLICATION_PROTOCOL_DEFINITION ( 'international standard', 'config_control_design', 1994, #212 ) ;
#105 = COORDINATED_UNIVERSAL_TIME_OFFSET ( 1, 0, .AHEAD. ) ;
#106 = CARTESIAN_POINT ( 'NONE',  ( 5.500000000000000000, 6.735557395310442023E-16, 200.0000000000000000 ) ) ;
#107 = APPROVAL_PERSON_ORGANIZATION ( #61, #129, #162 ) ;
#108 = VECTOR ( 'NONE', #222, 1000.000000000000000 ) ;
#109 = ORIENTED_EDGE ( 'NONE', *, *, #7, .F. ) ;
#110 = EDGE_LOOP ( 'NONE', ( #35, #255, #127, #228 ) ) ;
#111 = ORIENTED_EDGE ( 'NONE', *, *, #185, .F. ) ;
#112 = CARTESIAN_POINT ( 'NONE',  ( 5.500000000000000000, 6.735557395310442023E-16, 5.000000000000000000 ) ) ;
#113 = CARTESIAN_POINT ( 'NONE',  ( 0.000000000000000000, 0.000000000000000000, 200.0000000000000000 ) ) ;
#114 = FACE_OUTER_BOUND ( 'NONE', #193, .T. ) ;
#115 = CC_DESIGN_DATE_AND_TIME_ASSIGNMENT ( #248, #86, ( #198 ) ) ;
#116 = DIRECTION ( 'NONE',  ( -1.000000000000000000, 0.000000000000000000, 0.000000000000000000 ) ) ;
#117 = APPROVAL_STATUS ( 'not_yet_approved' ) ;
#118 = CIRCLE ( 'NONE', #252, 8.000000000000000000 ) ;
#119 = DIRECTION ( 'NONE',  ( 1.000000000000000000, 0.000000000000000000, 0.000000000000000000 ) ) ;
#120 = CIRCLE ( 'NONE', #240, 5.500000000000000000 ) ;
#121 = CC_DESIGN_PERSON_AND_ORGANIZATION_ASSIGNMENT ( #205, #85, ( #171 ) ) ;
#122 = PERSON_AND_ORGANIZATION ( #140, #249 ) ;
#123 = CC_DESIGN_SECURITY_CLASSIFICATION ( #198, ( #171 ) ) ;
#124 = APPROVAL ( #117, 'NEURÈENÝ' ) ;
#125 = ORIENTED_EDGE ( 'NONE', *, *, #64, .F. ) ;
#126 = VERTEX_POINT ( 'NONE', #42 ) ;
#127 = ORIENTED_EDGE ( 'NONE', *, *, #135, .T. ) ;
#128 = ORIENTED_EDGE ( 'NONE', *, *, #163, .F. ) ;
#129 = APPROVAL ( #103, 'NEURÈENÝ' ) ;
#130 = CC_DESIGN_PERSON_AND_ORGANIZATION_ASSIGNMENT ( #213, #154, ( #68 ) ) ;
#131 = CARTESIAN_POINT ( 'NONE',  ( 0.000000000000000000, 0.000000000000000000, 5.000000000000000000 ) ) ;
#132 = CARTESIAN_POINT ( 'NONE',  ( 0.000000000000000000, 0.000000000000000000, 0.000000000000000000 ) ) ;
#133 = AXIS2_PLACEMENT_3D ( 'NONE', #70, #189, #168 ) ;
#134 = DIRECTION ( 'NONE',  ( 0.000000000000000000, 0.000000000000000000, 1.000000000000000000 ) ) ;
#135 = EDGE_CURVE ( 'NONE', #251, #126, #219, .T. ) ;
#136 = CIRCLE ( 'NONE', #43, 5.500000000000000000 ) ;
#137 = DIRECTION ( 'NONE',  ( -0.000000000000000000, -0.000000000000000000, -1.000000000000000000 ) ) ;
#138 = CALENDAR_DATE ( 2023, 12, 2 ) ;
#139 = CARTESIAN_POINT ( 'NONE',  ( -8.000000000000000000, 0.000000000000000000, 5.000000000000000000 ) ) ;
#140 = PERSON ( 'NEURÈENÝ', 'NEURÈENÝ', 'NEURÈENÝ', ('NEURÈENÝ'), ('NEURÈENÝ'), ('NEURÈENÝ') ) ;
#141 = PERSON_AND_ORGANIZATION ( #140, #249 ) ;
#142 = PERSON_AND_ORGANIZATION ( #140, #249 ) ;
#143 = DIRECTION ( 'NONE',  ( 0.000000000000000000, 0.000000000000000000, 1.000000000000000000 ) ) ;
#144 = APPROVAL_PERSON_ORGANIZATION ( #122, #74, #11 ) ;
#145 = DATE_TIME_ROLE ( 'creation_date' ) ;
#146 = MECHANICAL_CONTEXT ( 'NONE', #212, 'mechanical' ) ;
#147 = ORIENTED_EDGE ( 'NONE', *, *, #15, .T. ) ;
#148 = ADVANCED_FACE ( 'NONE', ( #114 ), #195, .T. ) ;
#149 = EDGE_LOOP ( 'NONE', ( #231, #214, #208, #32 ) ) ;
#150 = LOCAL_TIME ( 12, 14, 36.00000000000000000, #105 ) ;
#151 = ORIENTED_EDGE ( 'NONE', *, *, #66, .T. ) ;
#152 = CIRCLE ( 'NONE', #224, 8.000000000000000000 ) ;
#153 = LINE ( 'NONE', #96, #217 ) ;
#154 = PERSON_AND_ORGANIZATION_ROLE ( 'design_owner' ) ;
#155 = LOCAL_TIME ( 12, 14, 36.00000000000000000, #81 ) ;
#156 = DIRECTION ( 'NONE',  ( 0.000000000000000000, 0.000000000000000000, 1.000000000000000000 ) ) ;
#157 = DIRECTION ( 'NONE',  ( -0.000000000000000000, -0.000000000000000000, -1.000000000000000000 ) ) ;
#158 = DIRECTION ( 'NONE',  ( 0.000000000000000000, 0.000000000000000000, 1.000000000000000000 ) ) ;
#159 = DATE_AND_TIME ( #9, #30 ) ;
#160 = CARTESIAN_POINT ( 'NONE',  ( 0.000000000000000000, 0.000000000000000000, 5.000000000000000000 ) ) ;
#161 = DATE_AND_TIME ( #83, #150 ) ;
#162 = APPROVAL_ROLE ( '' ) ;
#163 = EDGE_CURVE ( 'NONE', #18, #95, #120, .T. ) ;
#164 = CLOSED_SHELL ( 'NONE', ( #52, #56, #3, #210, #192, #148, #188 ) ) ;
#165 = PERSON_AND_ORGANIZATION_ROLE ( 'classification_officer' ) ;
#166 = CC_DESIGN_APPROVAL ( #74, ( #198 ) ) ;
#167 = SECURITY_CLASSIFICATION_LEVEL ( 'unclassified' ) ;
#168 = DIRECTION ( 'NONE',  ( -1.000000000000000000, 0.000000000000000000, 0.000000000000000000 ) ) ;
#169 = ORIENTED_EDGE ( 'NONE', *, *, #49, .T. ) ;
#170 = ORIENTED_EDGE ( 'NONE', *, *, #230, .F. ) ;
#171 = PRODUCT_DEFINITION_FORMATION_WITH_SPECIFIED_SOURCE ( 'LIBOVOLNÝ', '', #68, .NOT_KNOWN. ) ;
#172 = PRODUCT_DEFINITION_SHAPE ( 'NONE', 'NONE',  #221 ) ;
#173 = EDGE_CURVE ( 'NONE', #253, #50, #23, .T. ) ;
#174 = DIRECTION ( 'NONE',  ( 0.000000000000000000, 0.000000000000000000, 1.000000000000000000 ) ) ;
#175 = PRODUCT_RELATED_PRODUCT_CATEGORY ( 'detail', '', ( #68 ) ) ;
#176 = CARTESIAN_POINT ( 'NONE',  ( 0.000000000000000000, 0.000000000000000000, 200.0000000000000000 ) ) ;
#177 = CARTESIAN_POINT ( 'NONE',  ( 0.000000000000000000, 0.000000000000000000, 200.0000000000000000 ) ) ;
#178 = CARTESIAN_POINT ( 'NONE',  ( 0.000000000000000000, 0.000000000000000000, 200.0000000000000000 ) ) ;
#179 = COORDINATED_UNIVERSAL_TIME_OFFSET ( 1, 0, .AHEAD. ) ;
#180 = FACE_BOUND ( 'NONE', #54, .T. ) ;
#181 = CALENDAR_DATE ( 2023, 12, 2 ) ;
#182 = APPROVAL_PERSON_ORGANIZATION ( #98, #124, #65 ) ;
#183 = CARTESIAN_POINT ( 'NONE',  ( -5.500000000000000000, 0.000000000000000000, 5.000000000000000000 ) ) ;
#184 = CIRCLE ( 'NONE', #72, 5.500000000000000000 ) ;
#185 = EDGE_CURVE ( 'NONE', #94, #229, #136, .T. ) ;
#186 = CIRCLE ( 'NONE', #209, 8.000000000000000000 ) ;
#187 = LINE ( 'NONE', #106, #234 ) ;
#188 = ADVANCED_FACE ( 'NONE', ( #79 ), #200, .T. ) ;
#189 = DIRECTION ( 'NONE',  ( -0.000000000000000000, -0.000000000000000000, -1.000000000000000000 ) ) ;
#190 = VECTOR ( 'NONE', #55, 1000.000000000000000 ) ;
#191 = ORIENTED_EDGE ( 'NONE', *, *, #20, .F. ) ;
#192 = ADVANCED_FACE ( 'NONE', ( #8 ), #78, .F. ) ;
#193 = EDGE_LOOP ( 'NONE', ( #170, #128, #93, #147 ) ) ;
#194 = CARTESIAN_POINT ( 'NONE',  ( -5.500000000000000000, 0.000000000000000000, 200.0000000000000000 ) ) ;
#195 = CYLINDRICAL_SURFACE ( 'NONE', #254, 5.500000000000000000 ) ;
#196 = APPLICATION_PROTOCOL_DEFINITION ( 'international standard', 'config_control_design', 1994, #34 ) ;
#197 = CARTESIAN_POINT ( 'NONE',  ( 8.000000000000000000, 9.797174393178825657E-16, 5.000000000000000000 ) ) ;
#198 = SECURITY_CLASSIFICATION ( '', '', #167 ) ;
#199 = DIRECTION ( 'NONE',  ( 0.000000000000000000, 0.000000000000000000, 1.000000000000000000 ) ) ;
#200 = PLANE ( 'NONE',  #48 ) ;
#201 = CALENDAR_DATE ( 2023, 12, 2 ) ;
#202 = CIRCLE ( 'NONE', #29, 8.000000000000000000 ) ;
#203 = APPROVAL_DATE_TIME ( #161, #74 ) ;
#204 = CARTESIAN_POINT ( 'NONE',  ( -8.000000000000000000, 0.000000000000000000, 5.000000000000000000 ) ) ;
#205 = PERSON_AND_ORGANIZATION ( #140, #249 ) ;
#206 = DIRECTION ( 'NONE',  ( 1.000000000000000000, 0.000000000000000000, 0.000000000000000000 ) ) ;
#207 = ORIENTED_EDGE ( 'NONE', *, *, #7, .T. ) ;
#208 = ORIENTED_EDGE ( 'NONE', *, *, #64, .T. ) ;
#209 = AXIS2_PLACEMENT_3D ( 'NONE', #247, #227, #206 ) ;
#210 = ADVANCED_FACE ( 'NONE', ( #180, #10 ), #82, .T. ) ;
#211 = AXIS2_PLACEMENT_3D ( 'NONE', #176, #137, #236 ) ;
#212 = APPLICATION_CONTEXT ( 'configuration controlled 3d designs of mechanical parts and assemblies' ) ;
#213 = PERSON_AND_ORGANIZATION ( #140, #249 ) ;
#214 = ORIENTED_EDGE ( 'NONE', *, *, #173, .T. ) ;
#215 = DIRECTION ( 'NONE',  ( 1.000000000000000000, 0.000000000000000000, 0.000000000000000000 ) ) ;
#216 = DIRECTION ( 'NONE',  ( 1.000000000000000000, 0.000000000000000000, 0.000000000000000000 ) ) ;
#217 = VECTOR ( 'NONE', #157, 1000.000000000000000 ) ;
#218 = FACE_OUTER_BOUND ( 'NONE', #1, .T. ) ;
#219 = LINE ( 'NONE', #139, #108 ) ;
#220 = DESIGN_CONTEXT ( 'detailed design', #34, 'design' ) ;
#221 = PRODUCT_DEFINITION ( 'NEZNÁMÝ', '', #171, #220 ) ;
#222 = DIRECTION ( 'NONE',  ( -0.000000000000000000, -0.000000000000000000, -1.000000000000000000 ) ) ;
#223 = PERSON_AND_ORGANIZATION ( #140, #249 ) ;
#224 = AXIS2_PLACEMENT_3D ( 'NONE', #24, #199, #215 ) ;
#225 = DIRECTION ( 'NONE',  ( 0.000000000000000000, 0.000000000000000000, 1.000000000000000000 ) ) ;
#226 = DATE_AND_TIME ( #138, #60 ) ;
#227 = DIRECTION ( 'NONE',  ( 0.000000000000000000, 0.000000000000000000, 1.000000000000000000 ) ) ;
#228 = ORIENTED_EDGE ( 'NONE', *, *, #239, .T. ) ;
#229 = VERTEX_POINT ( 'NONE', #183 ) ;
#230 = EDGE_CURVE ( 'NONE', #95, #94, #187, .T. ) ;
#231 = ORIENTED_EDGE ( 'NONE', *, *, #49, .F. ) ;
#232 = AXIS2_PLACEMENT_3D ( 'NONE', #131, #242, #62 ) ;
#233 = DIRECTION ( 'NONE',  ( 0.000000000000000000, 0.000000000000000000, 1.000000000000000000 ) ) ;
#234 = VECTOR ( 'NONE', #27, 1000.000000000000000 ) ;
#235 = CARTESIAN_POINT ( 'NONE',  ( 0.000000000000000000, 0.000000000000000000, 0.000000000000000000 ) ) ;
#236 = DIRECTION ( 'NONE',  ( -1.000000000000000000, 0.000000000000000000, 0.000000000000000000 ) ) ;
#237 = UNCERTAINTY_MEASURE_WITH_UNIT (LENGTH_MEASURE( 1.000000000000000082E-05 ), #26, 'distance_accuracy_value', 'NONE');
#238 = CYLINDRICAL_SURFACE ( 'NONE', #232, 8.000000000000000000 ) ;
#239 = EDGE_CURVE ( 'NONE', #126, #50, #186, .T. ) ;
#240 = AXIS2_PLACEMENT_3D ( 'NONE', #177, #233, #100 ) ;
#241 = APPROVAL_DATE_TIME ( #84, #124 ) ;
#242 = DIRECTION ( 'NONE',  ( -0.000000000000000000, -0.000000000000000000, -1.000000000000000000 ) ) ;
#243 = PERSON_AND_ORGANIZATION_ROLE ( 'creator' ) ;
#244 = CARTESIAN_POINT ( 'NONE',  ( 0.000000000000000000, 0.000000000000000000, 0.000000000000000000 ) ) ;
#245 = MANIFOLD_SOLID_BREP ( 'Pøidat vysunutím3', #164 ) ;
#246 = APPROVAL_DATE_TIME ( #226, #129 ) ;
#247 = CARTESIAN_POINT ( 'NONE',  ( 0.000000000000000000, 0.000000000000000000, 0.000000000000000000 ) ) ;
#248 = DATE_AND_TIME ( #181, #5 ) ;
#249 = ORGANIZATION ( 'NEURÈENÝ', 'NEURÈENÝ', '' ) ;
#250 = DIRECTION ( 'NONE',  ( 1.000000000000000000, 0.000000000000000000, -0.000000000000000000 ) ) ;
#251 = VERTEX_POINT ( 'NONE', #204 ) ;
#252 = AXIS2_PLACEMENT_3D ( 'NONE', #132, #174, #2 ) ;
#253 = VERTEX_POINT ( 'NONE', #46 ) ;
#254 = AXIS2_PLACEMENT_3D ( 'NONE', #113, #76, #116 ) ;
#255 = ORIENTED_EDGE ( 'NONE', *, *, #66, .F. ) ;
ENDSEC;
END-ISO-10303-21;
