ISO-10303-21;
HEADER;
FILE_DESCRIPTION (( 'STEP AP203' ),
    '1' );
FILE_NAME ('9380.STEP',
    '2023-02-12T11:38:25',
    ( '' ),
    ( '' ),
    'SwSTEP 2.0',
    'SolidWorks 2019',
    '' );
FILE_SCHEMA (( 'CONFIG_CONTROL_DESIGN' ));
ENDSEC;

DATA;
#1 = DIRECTION ( 'NONE',  ( 0.000000000000000000, 0.000000000000000000, 1.000000000000000000 ) ) ;
#2 = AXIS2_PLACEMENT_3D ( 'NONE', #147, #38, #196 ) ;
#3 =( NAMED_UNIT ( * ) PLANE_ANGLE_UNIT ( ) SI_UNIT ( $, .RADIAN. ) );
#4 = ORIENTED_EDGE ( 'NONE', *, *, #81, .T. ) ;
#5 = APPROVAL_DATE_TIME ( #189, #233 ) ;
#6 = APPROVAL_STATUS ( 'not_yet_approved' ) ;
#7 = VERTEX_POINT ( 'NONE', #248 ) ;
#8 = ORIENTED_EDGE ( 'NONE', *, *, #174, .F. ) ;
#9 = CC_DESIGN_PERSON_AND_ORGANIZATION_ASSIGNMENT ( #252, #78, ( #221 ) ) ;
#10 = CARTESIAN_POINT ( 'NONE',  ( 4.250000000000000000, 5.204748896376250699E-16, 160.0000000000000000 ) ) ;
#11 = VECTOR ( 'NONE', #148, 1000.000000000000000 ) ;
#12 = APPROVAL_DATE_TIME ( #31, #49 ) ;
#13 = FACE_OUTER_BOUND ( 'NONE', #32, .T. ) ;
#14 = PERSON_AND_ORGANIZATION_ROLE ( 'design_supplier' ) ;
#15 = FACE_OUTER_BOUND ( 'NONE', #66, .T. ) ;
#16 = AXIS2_PLACEMENT_3D ( 'NONE', #209, #34, #79 ) ;
#17 = DIRECTION ( 'NONE',  ( 0.000000000000000000, 0.000000000000000000, 1.000000000000000000 ) ) ;
#18 = LOCAL_TIME ( 12, 38, 25.00000000000000000, #47 ) ;
#19 = CARTESIAN_POINT ( 'NONE',  ( -4.250000000000000000, 0.000000000000000000, 160.0000000000000000 ) ) ;
#20 = CC_DESIGN_SECURITY_CLASSIFICATION ( #221, ( #165 ) ) ;
#21 = ADVANCED_FACE ( 'NONE', ( #13 ), #213, .T. ) ;
#22 = DIRECTION ( 'NONE',  ( 1.000000000000000000, 0.000000000000000000, 0.000000000000000000 ) ) ;
#23 = CLOSED_SHELL ( 'NONE', ( #212, #171, #21, #186, #128, #35, #166 ) ) ;
#24 = APPROVAL_PERSON_ORGANIZATION ( #117, #233, #25 ) ;
#25 = APPROVAL_ROLE ( '' ) ;
#26 = ORIENTED_EDGE ( 'NONE', *, *, #92, .T. ) ;
#27 = EDGE_CURVE ( 'NONE', #136, #96, #202, .T. ) ;
#28 = ORIENTED_EDGE ( 'NONE', *, *, #59, .F. ) ;
#29 = EDGE_LOOP ( 'NONE', ( #8, #93, #114, #188 ) ) ;
#30 = CARTESIAN_POINT ( 'NONE',  ( 0.000000000000000000, 0.000000000000000000, 0.000000000000000000 ) ) ;
#31 = DATE_AND_TIME ( #74, #116 ) ;
#32 = EDGE_LOOP ( 'NONE', ( #226, #244, #241, #227 ) ) ;
#33 = SECURITY_CLASSIFICATION_LEVEL ( 'unclassified' ) ;
#34 = DIRECTION ( 'NONE',  ( 0.000000000000000000, 0.000000000000000000, 1.000000000000000000 ) ) ;
#35 = ADVANCED_FACE ( 'NONE', ( #15 ), #197, .T. ) ;
#36 = DIRECTION ( 'NONE',  ( 0.000000000000000000, 0.000000000000000000, 1.000000000000000000 ) ) ;
#37 = ADVANCED_BREP_SHAPE_REPRESENTATION ( '9380', ( #72, #120 ), #177 ) ;
#38 = DIRECTION ( 'NONE',  ( 0.000000000000000000, 0.000000000000000000, 1.000000000000000000 ) ) ;
#39 = FACE_OUTER_BOUND ( 'NONE', #122, .T. ) ;
#40 = PRODUCT_RELATED_PRODUCT_CATEGORY ( 'detail', '', ( #201 ) ) ;
#41 = AXIS2_PLACEMENT_3D ( 'NONE', #163, #162, #214 ) ;
#42 = CC_DESIGN_APPROVAL ( #233, ( #76 ) ) ;
#43 = COORDINATED_UNIVERSAL_TIME_OFFSET ( 1, 0, .AHEAD. ) ;
#44 = PERSON_AND_ORGANIZATION ( #218, #238 ) ;
#45 = LOCAL_TIME ( 12, 38, 25.00000000000000000, #229 ) ;
#46 = APPROVAL_DATE_TIME ( #152, #149 ) ;
#47 = COORDINATED_UNIVERSAL_TIME_OFFSET ( 1, 0, .AHEAD. ) ;
#48 = ORIENTED_EDGE ( 'NONE', *, *, #181, .T. ) ;
#49 = APPROVAL ( #246, 'NEURÈENÝ' ) ;
#50 = ORIENTED_EDGE ( 'NONE', *, *, #27, .T. ) ;
#51 = ORIENTED_EDGE ( 'NONE', *, *, #121, .T. ) ;
#52 = VECTOR ( 'NONE', #237, 1000.000000000000000 ) ;
#53 = CARTESIAN_POINT ( 'NONE',  ( 7.000000000000000000, 8.572527594031473190E-16, 5.000000000000000000 ) ) ;
#54 = SHAPE_DEFINITION_REPRESENTATION ( #170, #37 ) ;
#55 = CARTESIAN_POINT ( 'NONE',  ( -4.250000000000000000, 0.000000000000000000, 160.0000000000000000 ) ) ;
#56 = DIRECTION ( 'NONE',  ( 1.000000000000000000, 0.000000000000000000, 0.000000000000000000 ) ) ;
#57 = AXIS2_PLACEMENT_3D ( 'NONE', #210, #36, #56 ) ;
#58 = DIRECTION ( 'NONE',  ( -0.000000000000000000, -0.000000000000000000, -1.000000000000000000 ) ) ;
#59 = EDGE_CURVE ( 'NONE', #96, #71, #250, .T. ) ;
#60 = CARTESIAN_POINT ( 'NONE',  ( 0.000000000000000000, 0.000000000000000000, 5.000000000000000000 ) ) ;
#61 = CC_DESIGN_APPROVAL ( #149, ( #165 ) ) ;
#62 = EDGE_CURVE ( 'NONE', #7, #175, #105, .T. ) ;
#63 = CARTESIAN_POINT ( 'NONE',  ( 0.000000000000000000, 0.000000000000000000, 5.000000000000000000 ) ) ;
#64 = DIRECTION ( 'NONE',  ( -1.000000000000000000, 0.000000000000000000, 0.000000000000000000 ) ) ;
#65 = APPROVAL_ROLE ( '' ) ;
#66 = EDGE_LOOP ( 'NONE', ( #28, #69, #48, #51 ) ) ;
#67 = CC_DESIGN_APPROVAL ( #49, ( #221 ) ) ;
#68 = PERSON_AND_ORGANIZATION_ROLE ( 'design_owner' ) ;
#69 = ORIENTED_EDGE ( 'NONE', *, *, #27, .F. ) ;
#70 = EDGE_CURVE ( 'NONE', #71, #192, #200, .T. ) ;
#71 = VERTEX_POINT ( 'NONE', #80 ) ;
#72 = MANIFOLD_SOLID_BREP ( 'Pøidat vysunutím3', #23 ) ;
#73 = PERSON_AND_ORGANIZATION ( #218, #238 ) ;
#74 = CALENDAR_DATE ( 2023, 12, 2 ) ;
#75 = DIRECTION ( 'NONE',  ( 1.000000000000000000, 0.000000000000000000, 0.000000000000000000 ) ) ;
#76 = PRODUCT_DEFINITION ( 'NEZNÁMÝ', '', #165, #217 ) ;
#77 = CARTESIAN_POINT ( 'NONE',  ( 0.000000000000000000, 0.000000000000000000, 160.0000000000000000 ) ) ;
#78 = PERSON_AND_ORGANIZATION_ROLE ( 'classification_officer' ) ;
#79 = DIRECTION ( 'NONE',  ( 1.000000000000000000, 0.000000000000000000, 0.000000000000000000 ) ) ;
#80 = CARTESIAN_POINT ( 'NONE',  ( 4.250000000000000000, 5.204748896376250699E-16, 5.000000000000000000 ) ) ;
#81 = EDGE_CURVE ( 'NONE', #175, #7, #232, .T. ) ;
#82 = DIRECTION ( 'NONE',  ( 1.000000000000000000, 0.000000000000000000, 0.000000000000000000 ) ) ;
#83 = FACE_OUTER_BOUND ( 'NONE', #223, .T. ) ;
#84 = DIRECTION ( 'NONE',  ( 1.000000000000000000, 0.000000000000000000, -0.000000000000000000 ) ) ;
#85 = DIRECTION ( 'NONE',  ( 0.000000000000000000, 0.000000000000000000, 1.000000000000000000 ) ) ;
#86 = FACE_BOUND ( 'NONE', #205, .T. ) ;
#87 = DIRECTION ( 'NONE',  ( -1.000000000000000000, 0.000000000000000000, 0.000000000000000000 ) ) ;
#88 = AXIS2_PLACEMENT_3D ( 'NONE', #164, #153, #64 ) ;
#89 = MECHANICAL_CONTEXT ( 'NONE', #112, 'mechanical' ) ;
#90 = DATE_AND_TIME ( #133, #18 ) ;
#91 = ORIENTED_EDGE ( 'NONE', *, *, #92, .F. ) ;
#92 = EDGE_CURVE ( 'NONE', #140, #240, #115, .T. ) ;
#93 = ORIENTED_EDGE ( 'NONE', *, *, #59, .T. ) ;
#94 = AXIS2_PLACEMENT_3D ( 'NONE', #77, #123, #75 ) ;
#95 = ORIENTED_EDGE ( 'NONE', *, *, #70, .F. ) ;
#96 = VERTEX_POINT ( 'NONE', #10 ) ;
#97 = COORDINATED_UNIVERSAL_TIME_OFFSET ( 1, 0, .AHEAD. ) ;
#98 = APPROVAL_PERSON_ORGANIZATION ( #231, #49, #211 ) ;
#99 = CARTESIAN_POINT ( 'NONE',  ( 0.000000000000000000, 0.000000000000000000, 5.000000000000000000 ) ) ;
#100 = DIRECTION ( 'NONE',  ( -1.000000000000000000, 0.000000000000000000, 0.000000000000000000 ) ) ;
#101 = CC_DESIGN_PERSON_AND_ORGANIZATION_ASSIGNMENT ( #225, #158, ( #165 ) ) ;
#102 = DIRECTION ( 'NONE',  ( 1.000000000000000000, 0.000000000000000000, 0.000000000000000000 ) ) ;
#103 = AXIS2_PLACEMENT_3D ( 'NONE', #126, #1, #84 ) ;
#104 = DIRECTION ( 'NONE',  ( -0.000000000000000000, -0.000000000000000000, -1.000000000000000000 ) ) ;
#105 = CIRCLE ( 'NONE', #236, 7.000000000000000000 ) ;
#106 = FACE_OUTER_BOUND ( 'NONE', #29, .T. ) ;
#107 = CARTESIAN_POINT ( 'NONE',  ( -7.000000000000000000, 0.000000000000000000, 5.000000000000000000 ) ) ;
#108 = EDGE_CURVE ( 'NONE', #7, #140, #176, .T. ) ;
#109 = APPLICATION_PROTOCOL_DEFINITION ( 'international standard', 'config_control_design', 1994, #112 ) ;
#110 = CIRCLE ( 'NONE', #57, 7.000000000000000000 ) ;
#111 = ORIENTED_EDGE ( 'NONE', *, *, #121, .F. ) ;
#112 = APPLICATION_CONTEXT ( 'configuration controlled 3d designs of mechanical parts and assemblies' ) ;
#113 = DATE_TIME_ROLE ( 'creation_date' ) ;
#114 = ORIENTED_EDGE ( 'NONE', *, *, #70, .T. ) ;
#115 = CIRCLE ( 'NONE', #190, 7.000000000000000000 ) ;
#116 = LOCAL_TIME ( 12, 38, 25.00000000000000000, #97 ) ;
#117 = PERSON_AND_ORGANIZATION ( #218, #238 ) ;
#118 = EDGE_LOOP ( 'NONE', ( #50, #194 ) ) ;
#119 = FACE_OUTER_BOUND ( 'NONE', #134, .T. ) ;
#120 = AXIS2_PLACEMENT_3D ( 'NONE', #30, #204, #193 ) ;
#121 = EDGE_CURVE ( 'NONE', #192, #71, #137, .T. ) ;
#122 = EDGE_LOOP ( 'NONE', ( #173, #172, #26, #242 ) ) ;
#123 = DIRECTION ( 'NONE',  ( 0.000000000000000000, 0.000000000000000000, 1.000000000000000000 ) ) ;
#124 = DIRECTION ( 'NONE',  ( 1.000000000000000000, 0.000000000000000000, -0.000000000000000000 ) ) ;
#125 = CC_DESIGN_PERSON_AND_ORGANIZATION_ASSIGNMENT ( #44, #68, ( #201 ) ) ;
#126 = CARTESIAN_POINT ( 'NONE',  ( 0.000000000000000000, 0.000000000000000000, 160.0000000000000000 ) ) ;
#127 = VECTOR ( 'NONE', #141, 1000.000000000000000 ) ;
#128 = ADVANCED_FACE ( 'NONE', ( #119 ), #178, .F. ) ;
#129 = CYLINDRICAL_SURFACE ( 'NONE', #161, 7.000000000000000000 ) ;
#130 =( LENGTH_UNIT ( ) NAMED_UNIT ( * ) SI_UNIT ( .MILLI., .METRE. ) );
#131 = AXIS2_PLACEMENT_3D ( 'NONE', #63, #167, #124 ) ;
#132 = ORIENTED_EDGE ( 'NONE', *, *, #143, .F. ) ;
#133 = CALENDAR_DATE ( 2023, 12, 2 ) ;
#134 = EDGE_LOOP ( 'NONE', ( #132, #91 ) ) ;
#135 = PERSON_AND_ORGANIZATION ( #218, #238 ) ;
#136 = VERTEX_POINT ( 'NONE', #55 ) ;
#137 = CIRCLE ( 'NONE', #16, 4.250000000000000000 ) ;
#138 = LOCAL_TIME ( 12, 38, 25.00000000000000000, #43 ) ;
#139 = CC_DESIGN_DATE_AND_TIME_ASSIGNMENT ( #144, #156, ( #221 ) ) ;
#140 = VERTEX_POINT ( 'NONE', #142 ) ;
#141 = DIRECTION ( 'NONE',  ( -0.000000000000000000, -0.000000000000000000, -1.000000000000000000 ) ) ;
#142 = CARTESIAN_POINT ( 'NONE',  ( 7.000000000000000000, 8.572527594031473190E-16, 0.000000000000000000 ) ) ;
#143 = EDGE_CURVE ( 'NONE', #240, #140, #110, .T. ) ;
#144 = DATE_AND_TIME ( #249, #45 ) ;
#145 = FACE_OUTER_BOUND ( 'NONE', #118, .T. ) ;
#146 = CARTESIAN_POINT ( 'NONE',  ( 0.000000000000000000, 0.000000000000000000, 160.0000000000000000 ) ) ;
#147 = CARTESIAN_POINT ( 'NONE',  ( 0.000000000000000000, 0.000000000000000000, 5.000000000000000000 ) ) ;
#148 = DIRECTION ( 'NONE',  ( -0.000000000000000000, -0.000000000000000000, -1.000000000000000000 ) ) ;
#149 = APPROVAL ( #6, 'NEURÈENÝ' ) ;
#150 = LOCAL_TIME ( 12, 38, 25.00000000000000000, #224 ) ;
#151 = CARTESIAN_POINT ( 'NONE',  ( -7.000000000000000000, 0.000000000000000000, 0.000000000000000000 ) ) ;
#152 = DATE_AND_TIME ( #154, #138 ) ;
#153 = DIRECTION ( 'NONE',  ( -0.000000000000000000, -0.000000000000000000, -1.000000000000000000 ) ) ;
#154 = CALENDAR_DATE ( 2023, 12, 2 ) ;
#155 = PERSON_AND_ORGANIZATION_ROLE ( 'creator' ) ;
#156 = DATE_TIME_ROLE ( 'classification_date' ) ;
#157 = DIRECTION ( 'NONE',  ( 1.000000000000000000, 0.000000000000000000, -0.000000000000000000 ) ) ;
#158 = PERSON_AND_ORGANIZATION_ROLE ( 'creator' ) ;
#159 = DIRECTION ( 'NONE',  ( 0.000000000000000000, 0.000000000000000000, 1.000000000000000000 ) ) ;
#160 = VECTOR ( 'NONE', #58, 1000.000000000000000 ) ;
#161 = AXIS2_PLACEMENT_3D ( 'NONE', #199, #104, #87 ) ;
#162 = DIRECTION ( 'NONE',  ( -0.000000000000000000, -0.000000000000000000, -1.000000000000000000 ) ) ;
#163 = CARTESIAN_POINT ( 'NONE',  ( 0.000000000000000000, 0.000000000000000000, 5.000000000000000000 ) ) ;
#164 = CARTESIAN_POINT ( 'NONE',  ( 0.000000000000000000, 0.000000000000000000, 160.0000000000000000 ) ) ;
#165 = PRODUCT_DEFINITION_FORMATION_WITH_SPECIFIED_SOURCE ( 'LIBOVOLNÝ', '', #201, .NOT_KNOWN. ) ;
#166 = ADVANCED_FACE ( 'NONE', ( #145 ), #216, .T. ) ;
#167 = DIRECTION ( 'NONE',  ( 0.000000000000000000, 0.000000000000000000, 1.000000000000000000 ) ) ;
#168 = AXIS2_PLACEMENT_3D ( 'NONE', #230, #159, #157 ) ;
#169 = CARTESIAN_POINT ( 'NONE',  ( 0.000000000000000000, 0.000000000000000000, 160.0000000000000000 ) ) ;
#170 = PRODUCT_DEFINITION_SHAPE ( 'NONE', 'NONE',  #76 ) ;
#171 = ADVANCED_FACE ( 'NONE', ( #39 ), #129, .T. ) ;
#172 = ORIENTED_EDGE ( 'NONE', *, *, #108, .T. ) ;
#173 = ORIENTED_EDGE ( 'NONE', *, *, #62, .F. ) ;
#174 = EDGE_CURVE ( 'NONE', #96, #136, #255, .T. ) ;
#175 = VERTEX_POINT ( 'NONE', #107 ) ;
#176 = LINE ( 'NONE', #53, #127 ) ;
#177 =( GEOMETRIC_REPRESENTATION_CONTEXT ( 3 ) GLOBAL_UNCERTAINTY_ASSIGNED_CONTEXT ( ( #195 ) ) GLOBAL_UNIT_ASSIGNED_CONTEXT ( ( #130, #3, #239 ) ) REPRESENTATION_CONTEXT ( 'NONE', 'WORKASPACE' ) );
#178 = PLANE ( 'NONE',  #168 ) ;
#179 = DIRECTION ( 'NONE',  ( 0.000000000000000000, 0.000000000000000000, 1.000000000000000000 ) ) ;
#180 = CARTESIAN_POINT ( 'NONE',  ( 4.250000000000000000, 5.204748896376250699E-16, 160.0000000000000000 ) ) ;
#181 = EDGE_CURVE ( 'NONE', #136, #192, #182, .T. ) ;
#182 = LINE ( 'NONE', #19, #52 ) ;
#183 = CARTESIAN_POINT ( 'NONE',  ( -4.250000000000000000, 0.000000000000000000, 5.000000000000000000 ) ) ;
#184 = AXIS2_PLACEMENT_3D ( 'NONE', #169, #85, #22 ) ;
#185 = PLANE ( 'NONE',  #131 ) ;
#186 = ADVANCED_FACE ( 'NONE', ( #86, #83 ), #185, .T. ) ;
#187 = APPLICATION_PROTOCOL_DEFINITION ( 'international standard', 'config_control_design', 1994, #245 ) ;
#188 = ORIENTED_EDGE ( 'NONE', *, *, #181, .F. ) ;
#189 = DATE_AND_TIME ( #243, #150 ) ;
#190 = AXIS2_PLACEMENT_3D ( 'NONE', #228, #247, #102 ) ;
#191 = CC_DESIGN_DATE_AND_TIME_ASSIGNMENT ( #90, #113, ( #76 ) ) ;
#192 = VERTEX_POINT ( 'NONE', #183 ) ;
#193 = DIRECTION ( 'NONE',  ( 1.000000000000000000, 0.000000000000000000, 0.000000000000000000 ) ) ;
#194 = ORIENTED_EDGE ( 'NONE', *, *, #174, .T. ) ;
#195 = UNCERTAINTY_MEASURE_WITH_UNIT (LENGTH_MEASURE( 1.000000000000000082E-05 ), #130, 'distance_accuracy_value', 'NONE');
#196 = DIRECTION ( 'NONE',  ( 1.000000000000000000, 0.000000000000000000, 0.000000000000000000 ) ) ;
#197 = CYLINDRICAL_SURFACE ( 'NONE', #254, 4.250000000000000000 ) ;
#198 = APPROVAL_PERSON_ORGANIZATION ( #135, #149, #65 ) ;
#199 = CARTESIAN_POINT ( 'NONE',  ( 0.000000000000000000, 0.000000000000000000, 5.000000000000000000 ) ) ;
#200 = CIRCLE ( 'NONE', #220, 4.250000000000000000 ) ;
#201 = PRODUCT ( '9380', '9380', '', ( #89 ) ) ;
#202 = CIRCLE ( 'NONE', #94, 4.250000000000000000 ) ;
#203 = APPROVAL_STATUS ( 'not_yet_approved' ) ;
#204 = DIRECTION ( 'NONE',  ( 0.000000000000000000, 0.000000000000000000, 1.000000000000000000 ) ) ;
#205 = EDGE_LOOP ( 'NONE', ( #111, #95 ) ) ;
#206 = EDGE_CURVE ( 'NONE', #175, #240, #235, .T. ) ;
#207 = ORIENTED_EDGE ( 'NONE', *, *, #62, .T. ) ;
#208 = PERSON_AND_ORGANIZATION ( #218, #238 ) ;
#209 = CARTESIAN_POINT ( 'NONE',  ( 0.000000000000000000, 0.000000000000000000, 5.000000000000000000 ) ) ;
#210 = CARTESIAN_POINT ( 'NONE',  ( 0.000000000000000000, 0.000000000000000000, 0.000000000000000000 ) ) ;
#211 = APPROVAL_ROLE ( '' ) ;
#212 = ADVANCED_FACE ( 'NONE', ( #106 ), #215, .T. ) ;
#213 = CYLINDRICAL_SURFACE ( 'NONE', #41, 7.000000000000000000 ) ;
#214 = DIRECTION ( 'NONE',  ( -1.000000000000000000, 0.000000000000000000, 0.000000000000000000 ) ) ;
#215 = CYLINDRICAL_SURFACE ( 'NONE', #88, 4.250000000000000000 ) ;
#216 = PLANE ( 'NONE',  #103 ) ;
#217 = DESIGN_CONTEXT ( 'detailed design', #245, 'design' ) ;
#218 = PERSON ( 'NEURÈENÝ', 'NEURÈENÝ', 'NEURÈENÝ', ('NEURÈENÝ'), ('NEURÈENÝ'), ('NEURÈENÝ') ) ;
#219 = CARTESIAN_POINT ( 'NONE',  ( -7.000000000000000000, 0.000000000000000000, 5.000000000000000000 ) ) ;
#220 = AXIS2_PLACEMENT_3D ( 'NONE', #60, #17, #253 ) ;
#221 = SECURITY_CLASSIFICATION ( '', '', #33 ) ;
#222 = CC_DESIGN_PERSON_AND_ORGANIZATION_ASSIGNMENT ( #208, #14, ( #165 ) ) ;
#223 = EDGE_LOOP ( 'NONE', ( #4, #207 ) ) ;
#224 = COORDINATED_UNIVERSAL_TIME_OFFSET ( 1, 0, .AHEAD. ) ;
#225 = PERSON_AND_ORGANIZATION ( #218, #238 ) ;
#226 = ORIENTED_EDGE ( 'NONE', *, *, #108, .F. ) ;
#227 = ORIENTED_EDGE ( 'NONE', *, *, #143, .T. ) ;
#228 = CARTESIAN_POINT ( 'NONE',  ( 0.000000000000000000, 0.000000000000000000, 0.000000000000000000 ) ) ;
#229 = COORDINATED_UNIVERSAL_TIME_OFFSET ( 1, 0, .AHEAD. ) ;
#230 = CARTESIAN_POINT ( 'NONE',  ( 0.000000000000000000, 0.000000000000000000, 0.000000000000000000 ) ) ;
#231 = PERSON_AND_ORGANIZATION ( #218, #238 ) ;
#232 = CIRCLE ( 'NONE', #2, 7.000000000000000000 ) ;
#233 = APPROVAL ( #203, 'NEURÈENÝ' ) ;
#234 = DIRECTION ( 'NONE',  ( -0.000000000000000000, -0.000000000000000000, -1.000000000000000000 ) ) ;
#235 = LINE ( 'NONE', #219, #11 ) ;
#236 = AXIS2_PLACEMENT_3D ( 'NONE', #99, #179, #82 ) ;
#237 = DIRECTION ( 'NONE',  ( -0.000000000000000000, -0.000000000000000000, -1.000000000000000000 ) ) ;
#238 = ORGANIZATION ( 'NEURÈENÝ', 'NEURÈENÝ', '' ) ;
#239 =( NAMED_UNIT ( * ) SI_UNIT ( $, .STERADIAN. ) SOLID_ANGLE_UNIT ( ) );
#240 = VERTEX_POINT ( 'NONE', #151 ) ;
#241 = ORIENTED_EDGE ( 'NONE', *, *, #206, .T. ) ;
#242 = ORIENTED_EDGE ( 'NONE', *, *, #206, .F. ) ;
#243 = CALENDAR_DATE ( 2023, 12, 2 ) ;
#244 = ORIENTED_EDGE ( 'NONE', *, *, #81, .F. ) ;
#245 = APPLICATION_CONTEXT ( 'configuration controlled 3d designs of mechanical parts and assemblies' ) ;
#246 = APPROVAL_STATUS ( 'not_yet_approved' ) ;
#247 = DIRECTION ( 'NONE',  ( 0.000000000000000000, 0.000000000000000000, 1.000000000000000000 ) ) ;
#248 = CARTESIAN_POINT ( 'NONE',  ( 7.000000000000000000, 8.572527594031473190E-16, 5.000000000000000000 ) ) ;
#249 = CALENDAR_DATE ( 2023, 12, 2 ) ;
#250 = LINE ( 'NONE', #180, #160 ) ;
#251 = CC_DESIGN_PERSON_AND_ORGANIZATION_ASSIGNMENT ( #73, #155, ( #76 ) ) ;
#252 = PERSON_AND_ORGANIZATION ( #218, #238 ) ;
#253 = DIRECTION ( 'NONE',  ( 1.000000000000000000, 0.000000000000000000, 0.000000000000000000 ) ) ;
#254 = AXIS2_PLACEMENT_3D ( 'NONE', #146, #234, #100 ) ;
#255 = CIRCLE ( 'NONE', #184, 4.250000000000000000 ) ;
ENDSEC;
END-ISO-10303-21;
