ISO-10303-21;
HEADER;
FILE_DESCRIPTION (( 'STEP AP203' ),
    '1' );
FILE_NAME ('3923.STEP',
    '2023-02-12T11:35:23',
    ( '' ),
    ( '' ),
    'SwSTEP 2.0',
    'SolidWorks 2019',
    '' );
FILE_SCHEMA (( 'CONFIG_CONTROL_DESIGN' ));
ENDSEC;

DATA;
#1 = APPROVAL ( #158, 'NEURÈENÝ' ) ;
#2 = AXIS2_PLACEMENT_3D ( 'NONE', #165, #215, #121 ) ;
#3 = PRODUCT_DEFINITION_SHAPE ( 'NONE', 'NONE',  #82 ) ;
#4 = PLANE ( 'NONE',  #241 ) ;
#5 = COORDINATED_UNIVERSAL_TIME_OFFSET ( 1, 0, .AHEAD. ) ;
#6 = DIRECTION ( 'NONE',  ( 0.000000000000000000, 0.000000000000000000, 1.000000000000000000 ) ) ;
#7 = DIRECTION ( 'NONE',  ( -0.000000000000000000, -0.000000000000000000, -1.000000000000000000 ) ) ;
#8 = SECURITY_CLASSIFICATION_LEVEL ( 'unclassified' ) ;
#9 = LINE ( 'NONE', #245, #221 ) ;
#10 = ORIENTED_EDGE ( 'NONE', *, *, #151, .T. ) ;
#11 =( NAMED_UNIT ( * ) SI_UNIT ( $, .STERADIAN. ) SOLID_ANGLE_UNIT ( ) );
#12 = ADVANCED_FACE ( 'NONE', ( #123, #115 ), #188, .T. ) ;
#13 = ORIENTED_EDGE ( 'NONE', *, *, #104, .F. ) ;
#14 = AXIS2_PLACEMENT_3D ( 'NONE', #167, #198, #180 ) ;
#15 = LINE ( 'NONE', #163, #71 ) ;
#16 = APPROVAL_PERSON_ORGANIZATION ( #176, #137, #139 ) ;
#17 = EDGE_CURVE ( 'NONE', #125, #57, #203, .T. ) ;
#18 = AXIS2_PLACEMENT_3D ( 'NONE', #211, #174, #159 ) ;
#19 = LOCAL_TIME ( 12, 35, 23.00000000000000000, #5 ) ;
#20 = CARTESIAN_POINT ( 'NONE',  ( -7.000000000000000000, 0.000000000000000000, 0.000000000000000000 ) ) ;
#21 = AXIS2_PLACEMENT_3D ( 'NONE', #161, #210, #232 ) ;
#22 = ADVANCED_FACE ( 'NONE', ( #126 ), #4, .T. ) ;
#23 = CARTESIAN_POINT ( 'NONE',  ( 0.000000000000000000, 0.000000000000000000, 5.000000000000000000 ) ) ;
#24 = APPROVAL_PERSON_ORGANIZATION ( #233, #1, #75 ) ;
#25 = CARTESIAN_POINT ( 'NONE',  ( 0.000000000000000000, 0.000000000000000000, 5.000000000000000000 ) ) ;
#26 = PERSON_AND_ORGANIZATION_ROLE ( 'design_supplier' ) ;
#27 = EDGE_LOOP ( 'NONE', ( #172, #76 ) ) ;
#28 =( LENGTH_UNIT ( ) NAMED_UNIT ( * ) SI_UNIT ( .MILLI., .METRE. ) );
#29 = CARTESIAN_POINT ( 'NONE',  ( 4.500000000000000888, 5.510910596163089556E-16, 5.000000000000000000 ) ) ;
#30 = ORIENTED_EDGE ( 'NONE', *, *, #181, .T. ) ;
#31 = AXIS2_PLACEMENT_3D ( 'NONE', #97, #156, #56 ) ;
#32 = FACE_OUTER_BOUND ( 'NONE', #183, .T. ) ;
#33 = CC_DESIGN_PERSON_AND_ORGANIZATION_ASSIGNMENT ( #162, #234, ( #178 ) ) ;
#34 = DIRECTION ( 'NONE',  ( 1.000000000000000000, 0.000000000000000000, 0.000000000000000000 ) ) ;
#35 = LOCAL_TIME ( 12, 35, 23.00000000000000000, #44 ) ;
#36 = CALENDAR_DATE ( 2023, 12, 2 ) ;
#37 = EDGE_LOOP ( 'NONE', ( #95, #189, #30, #157 ) ) ;
#38 = DATE_AND_TIME ( #196, #120 ) ;
#39 = AXIS2_PLACEMENT_3D ( 'NONE', #23, #6, #243 ) ;
#40 = EDGE_CURVE ( 'NONE', #70, #118, #101, .T. ) ;
#41 = CARTESIAN_POINT ( 'NONE',  ( 4.500000000000000888, 5.510910596163089556E-16, 315.0000000000000000 ) ) ;
#42 = DIRECTION ( 'NONE',  ( -0.000000000000000000, -0.000000000000000000, -1.000000000000000000 ) ) ;
#43 = PLANE ( 'NONE',  #103 ) ;
#44 = COORDINATED_UNIVERSAL_TIME_OFFSET ( 1, 0, .AHEAD. ) ;
#45 = PRODUCT_RELATED_PRODUCT_CATEGORY ( 'detail', '', ( #148 ) ) ;
#46 = DIRECTION ( 'NONE',  ( 1.000000000000000000, 0.000000000000000000, -0.000000000000000000 ) ) ;
#47 = ADVANCED_FACE ( 'NONE', ( #170 ), #69, .T. ) ;
#48 = EDGE_LOOP ( 'NONE', ( #251, #209 ) ) ;
#49 = DATE_TIME_ROLE ( 'classification_date' ) ;
#50 = FACE_OUTER_BOUND ( 'NONE', #149, .T. ) ;
#51 = VERTEX_POINT ( 'NONE', #184 ) ;
#52 = DIRECTION ( 'NONE',  ( 0.000000000000000000, 0.000000000000000000, 1.000000000000000000 ) ) ;
#53 = MANIFOLD_SOLID_BREP ( 'Pøidat vysunutím3', #218 ) ;
#54 =( NAMED_UNIT ( * ) PLANE_ANGLE_UNIT ( ) SI_UNIT ( $, .RADIAN. ) );
#55 = CC_DESIGN_PERSON_AND_ORGANIZATION_ASSIGNMENT ( #124, #204, ( #96 ) ) ;
#56 = DIRECTION ( 'NONE',  ( -1.000000000000000000, 0.000000000000000000, 0.000000000000000000 ) ) ;
#57 = VERTEX_POINT ( 'NONE', #29 ) ;
#58 = APPROVAL_PERSON_ORGANIZATION ( #64, #219, #144 ) ;
#59 = ORIENTED_EDGE ( 'NONE', *, *, #67, .T. ) ;
#60 = CALENDAR_DATE ( 2023, 12, 2 ) ;
#61 = AXIS2_PLACEMENT_3D ( 'NONE', #168, #83, #65 ) ;
#62 = CIRCLE ( 'NONE', #105, 4.500000000000000888 ) ;
#63 = CIRCLE ( 'NONE', #39, 7.000000000000000000 ) ;
#64 = PERSON_AND_ORGANIZATION ( #197, #254 ) ;
#65 = DIRECTION ( 'NONE',  ( -1.000000000000000000, 0.000000000000000000, 0.000000000000000000 ) ) ;
#66 = DIRECTION ( 'NONE',  ( 0.000000000000000000, 0.000000000000000000, 1.000000000000000000 ) ) ;
#67 = EDGE_CURVE ( 'NONE', #220, #51, #9, .T. ) ;
#68 =( GEOMETRIC_REPRESENTATION_CONTEXT ( 3 ) GLOBAL_UNCERTAINTY_ASSIGNED_CONTEXT ( ( #223 ) ) GLOBAL_UNIT_ASSIGNED_CONTEXT ( ( #28, #54, #11 ) ) REPRESENTATION_CONTEXT ( 'NONE', 'WORKASPACE' ) );
#69 = CYLINDRICAL_SURFACE ( 'NONE', #78, 7.000000000000000000 ) ;
#70 = VERTEX_POINT ( 'NONE', #128 ) ;
#71 = VECTOR ( 'NONE', #135, 1000.000000000000000 ) ;
#72 = CARTESIAN_POINT ( 'NONE',  ( 7.000000000000000000, 8.572527594031473190E-16, 5.000000000000000000 ) ) ;
#73 = ORIENTED_EDGE ( 'NONE', *, *, #208, .T. ) ;
#74 = DIRECTION ( 'NONE',  ( 0.000000000000000000, 0.000000000000000000, 1.000000000000000000 ) ) ;
#75 = APPROVAL_ROLE ( '' ) ;
#76 = ORIENTED_EDGE ( 'NONE', *, *, #80, .T. ) ;
#77 = ORIENTED_EDGE ( 'NONE', *, *, #40, .F. ) ;
#78 = AXIS2_PLACEMENT_3D ( 'NONE', #25, #206, #113 ) ;
#79 = CC_DESIGN_APPROVAL ( #137, ( #178 ) ) ;
#80 = EDGE_CURVE ( 'NONE', #125, #220, #129, .T. ) ;
#81 = ADVANCED_BREP_SHAPE_REPRESENTATION ( '3923', ( #53, #200 ), #68 ) ;
#82 = PRODUCT_DEFINITION ( 'NEZNÁMÝ', '', #178, #246 ) ;
#83 = DIRECTION ( 'NONE',  ( -0.000000000000000000, -0.000000000000000000, -1.000000000000000000 ) ) ;
#84 = PERSON_AND_ORGANIZATION ( #197, #254 ) ;
#85 = DIRECTION ( 'NONE',  ( -0.000000000000000000, -0.000000000000000000, -1.000000000000000000 ) ) ;
#86 = FACE_OUTER_BOUND ( 'NONE', #112, .T. ) ;
#87 = APPLICATION_CONTEXT ( 'configuration controlled 3d designs of mechanical parts and assemblies' ) ;
#88 = CC_DESIGN_APPROVAL ( #1, ( #96 ) ) ;
#89 = CYLINDRICAL_SURFACE ( 'NONE', #61, 4.500000000000000888 ) ;
#90 = DIRECTION ( 'NONE',  ( 1.000000000000000000, 0.000000000000000000, 0.000000000000000000 ) ) ;
#91 = LOCAL_TIME ( 12, 35, 23.00000000000000000, #108 ) ;
#92 = CARTESIAN_POINT ( 'NONE',  ( 0.000000000000000000, 0.000000000000000000, 0.000000000000000000 ) ) ;
#93 = DATE_TIME_ROLE ( 'creation_date' ) ;
#94 = CALENDAR_DATE ( 2023, 12, 2 ) ;
#95 = ORIENTED_EDGE ( 'NONE', *, *, #80, .F. ) ;
#96 = SECURITY_CLASSIFICATION ( '', '', #8 ) ;
#97 = CARTESIAN_POINT ( 'NONE',  ( 0.000000000000000000, 0.000000000000000000, 315.0000000000000000 ) ) ;
#98 = CC_DESIGN_DATE_AND_TIME_ASSIGNMENT ( #111, #49, ( #96 ) ) ;
#99 = ORIENTED_EDGE ( 'NONE', *, *, #40, .T. ) ;
#100 = ORIENTED_EDGE ( 'NONE', *, *, #226, .T. ) ;
#101 = CIRCLE ( 'NONE', #150, 7.000000000000000000 ) ;
#102 = CC_DESIGN_DATE_AND_TIME_ASSIGNMENT ( #202, #93, ( #82 ) ) ;
#103 = AXIS2_PLACEMENT_3D ( 'NONE', #194, #107, #175 ) ;
#104 = EDGE_CURVE ( 'NONE', #229, #70, #15, .T. ) ;
#105 = AXIS2_PLACEMENT_3D ( 'NONE', #224, #52, #131 ) ;
#106 = PERSON_AND_ORGANIZATION_ROLE ( 'design_owner' ) ;
#107 = DIRECTION ( 'NONE',  ( 0.000000000000000000, 0.000000000000000000, 1.000000000000000000 ) ) ;
#108 = COORDINATED_UNIVERSAL_TIME_OFFSET ( 1, 0, .AHEAD. ) ;
#109 = CARTESIAN_POINT ( 'NONE',  ( 4.500000000000000888, 5.510910596163089556E-16, 315.0000000000000000 ) ) ;
#110 = ADVANCED_FACE ( 'NONE', ( #186 ), #230, .T. ) ;
#111 = DATE_AND_TIME ( #60, #19 ) ;
#112 = EDGE_LOOP ( 'NONE', ( #225, #227, #59, #244 ) ) ;
#113 = DIRECTION ( 'NONE',  ( -1.000000000000000000, 0.000000000000000000, 0.000000000000000000 ) ) ;
#114 = ADVANCED_FACE ( 'NONE', ( #32 ), #143, .T. ) ;
#115 = FACE_OUTER_BOUND ( 'NONE', #155, .T. ) ;
#116 = AXIS2_PLACEMENT_3D ( 'NONE', #160, #249, #153 ) ;
#117 = DATE_AND_TIME ( #36, #132 ) ;
#118 = VERTEX_POINT ( 'NONE', #20 ) ;
#119 = DIRECTION ( 'NONE',  ( 1.000000000000000000, 0.000000000000000000, 0.000000000000000000 ) ) ;
#120 = LOCAL_TIME ( 12, 35, 23.00000000000000000, #214 ) ;
#121 = DIRECTION ( 'NONE',  ( 1.000000000000000000, 0.000000000000000000, -0.000000000000000000 ) ) ;
#122 = DATE_AND_TIME ( #217, #35 ) ;
#123 = FACE_BOUND ( 'NONE', #48, .T. ) ;
#124 = PERSON_AND_ORGANIZATION ( #197, #254 ) ;
#125 = VERTEX_POINT ( 'NONE', #41 ) ;
#126 = FACE_OUTER_BOUND ( 'NONE', #27, .T. ) ;
#127 = ORIENTED_EDGE ( 'NONE', *, *, #187, .F. ) ;
#128 = CARTESIAN_POINT ( 'NONE',  ( 7.000000000000000000, 8.572527594031473190E-16, 0.000000000000000000 ) ) ;
#129 = CIRCLE ( 'NONE', #18, 4.500000000000000888 ) ;
#130 = ORIENTED_EDGE ( 'NONE', *, *, #104, .T. ) ;
#131 = DIRECTION ( 'NONE',  ( 1.000000000000000000, 0.000000000000000000, 0.000000000000000000 ) ) ;
#132 = LOCAL_TIME ( 12, 35, 23.00000000000000000, #247 ) ;
#133 = VERTEX_POINT ( 'NONE', #141 ) ;
#134 = APPROVAL_DATE_TIME ( #117, #1 ) ;
#135 = DIRECTION ( 'NONE',  ( -0.000000000000000000, -0.000000000000000000, -1.000000000000000000 ) ) ;
#136 = AXIS2_PLACEMENT_3D ( 'NONE', #164, #74, #34 ) ;
#137 = APPROVAL ( #236, 'NEURÈENÝ' ) ;
#138 = DIRECTION ( 'NONE',  ( 1.000000000000000000, 0.000000000000000000, 0.000000000000000000 ) ) ;
#139 = APPROVAL_ROLE ( '' ) ;
#140 = PERSON_AND_ORGANIZATION ( #197, #254 ) ;
#141 = CARTESIAN_POINT ( 'NONE',  ( -7.000000000000000000, 0.000000000000000000, 5.000000000000000000 ) ) ;
#142 = CIRCLE ( 'NONE', #21, 7.000000000000000000 ) ;
#143 = CYLINDRICAL_SURFACE ( 'NONE', #14, 7.000000000000000000 ) ;
#144 = APPROVAL_ROLE ( '' ) ;
#145 = MECHANICAL_CONTEXT ( 'NONE', #87, 'mechanical' ) ;
#146 = CC_DESIGN_PERSON_AND_ORGANIZATION_ASSIGNMENT ( #84, #106, ( #148 ) ) ;
#147 = CIRCLE ( 'NONE', #116, 4.500000000000000888 ) ;
#148 = PRODUCT ( '3923', '3923', '', ( #145 ) ) ;
#149 = EDGE_LOOP ( 'NONE', ( #205, #77 ) ) ;
#150 = AXIS2_PLACEMENT_3D ( 'NONE', #92, #182, #90 ) ;
#151 = EDGE_CURVE ( 'NONE', #133, #118, #216, .T. ) ;
#152 = AXIS2_PLACEMENT_3D ( 'NONE', #177, #255, #119 ) ;
#153 = DIRECTION ( 'NONE',  ( 1.000000000000000000, 0.000000000000000000, 0.000000000000000000 ) ) ;
#154 = CARTESIAN_POINT ( 'NONE',  ( 0.000000000000000000, 0.000000000000000000, 315.0000000000000000 ) ) ;
#155 = EDGE_LOOP ( 'NONE', ( #73, #207 ) ) ;
#156 = DIRECTION ( 'NONE',  ( -0.000000000000000000, -0.000000000000000000, -1.000000000000000000 ) ) ;
#157 = ORIENTED_EDGE ( 'NONE', *, *, #67, .F. ) ;
#158 = APPROVAL_STATUS ( 'not_yet_approved' ) ;
#159 = DIRECTION ( 'NONE',  ( 1.000000000000000000, 0.000000000000000000, 0.000000000000000000 ) ) ;
#160 = CARTESIAN_POINT ( 'NONE',  ( 0.000000000000000000, 0.000000000000000000, 315.0000000000000000 ) ) ;
#161 = CARTESIAN_POINT ( 'NONE',  ( 0.000000000000000000, 0.000000000000000000, 0.000000000000000000 ) ) ;
#162 = PERSON_AND_ORGANIZATION ( #197, #254 ) ;
#163 = CARTESIAN_POINT ( 'NONE',  ( 7.000000000000000000, 8.572527594031473190E-16, 5.000000000000000000 ) ) ;
#164 = CARTESIAN_POINT ( 'NONE',  ( 0.000000000000000000, 0.000000000000000000, 5.000000000000000000 ) ) ;
#165 = CARTESIAN_POINT ( 'NONE',  ( 0.000000000000000000, 0.000000000000000000, 5.000000000000000000 ) ) ;
#166 = APPLICATION_PROTOCOL_DEFINITION ( 'international standard', 'config_control_design', 1994, #87 ) ;
#167 = CARTESIAN_POINT ( 'NONE',  ( 0.000000000000000000, 0.000000000000000000, 5.000000000000000000 ) ) ;
#168 = CARTESIAN_POINT ( 'NONE',  ( 0.000000000000000000, 0.000000000000000000, 315.0000000000000000 ) ) ;
#169 = CARTESIAN_POINT ( 'NONE',  ( 0.000000000000000000, 0.000000000000000000, 0.000000000000000000 ) ) ;
#170 = FACE_OUTER_BOUND ( 'NONE', #185, .T. ) ;
#171 = CC_DESIGN_SECURITY_CLASSIFICATION ( #96, ( #178 ) ) ;
#172 = ORIENTED_EDGE ( 'NONE', *, *, #231, .T. ) ;
#173 = ORIENTED_EDGE ( 'NONE', *, *, #208, .F. ) ;
#174 = DIRECTION ( 'NONE',  ( 0.000000000000000000, 0.000000000000000000, 1.000000000000000000 ) ) ;
#175 = DIRECTION ( 'NONE',  ( 1.000000000000000000, 0.000000000000000000, -0.000000000000000000 ) ) ;
#176 = PERSON_AND_ORGANIZATION ( #197, #254 ) ;
#177 = CARTESIAN_POINT ( 'NONE',  ( 0.000000000000000000, 0.000000000000000000, 5.000000000000000000 ) ) ;
#178 = PRODUCT_DEFINITION_FORMATION_WITH_SPECIFIED_SOURCE ( 'LIBOVOLNÝ', '', #148, .NOT_KNOWN. ) ;
#179 = ADVANCED_FACE ( 'NONE', ( #86 ), #89, .T. ) ;
#180 = DIRECTION ( 'NONE',  ( -1.000000000000000000, 0.000000000000000000, 0.000000000000000000 ) ) ;
#181 = EDGE_CURVE ( 'NONE', #57, #51, #212, .T. ) ;
#182 = DIRECTION ( 'NONE',  ( 0.000000000000000000, 0.000000000000000000, 1.000000000000000000 ) ) ;
#183 = EDGE_LOOP ( 'NONE', ( #13, #173, #10, #100 ) ) ;
#184 = CARTESIAN_POINT ( 'NONE',  ( -4.500000000000000888, 0.000000000000000000, 5.000000000000000000 ) ) ;
#185 = EDGE_LOOP ( 'NONE', ( #127, #130, #99, #248 ) ) ;
#186 = FACE_OUTER_BOUND ( 'NONE', #37, .T. ) ;
#187 = EDGE_CURVE ( 'NONE', #229, #133, #63, .T. ) ;
#188 = PLANE ( 'NONE',  #2 ) ;
#189 = ORIENTED_EDGE ( 'NONE', *, *, #17, .T. ) ;
#190 = APPROVAL_DATE_TIME ( #38, #137 ) ;
#191 = ADVANCED_FACE ( 'NONE', ( #50 ), #43, .F. ) ;
#192 = CIRCLE ( 'NONE', #136, 7.000000000000000000 ) ;
#193 = PERSON_AND_ORGANIZATION ( #197, #254 ) ;
#194 = CARTESIAN_POINT ( 'NONE',  ( 0.000000000000000000, 0.000000000000000000, 0.000000000000000000 ) ) ;
#195 = CARTESIAN_POINT ( 'NONE',  ( -7.000000000000000000, 0.000000000000000000, 5.000000000000000000 ) ) ;
#196 = CALENDAR_DATE ( 2023, 12, 2 ) ;
#197 = PERSON ( 'NEURÈENÝ', 'NEURÈENÝ', 'NEURÈENÝ', ('NEURÈENÝ'), ('NEURÈENÝ'), ('NEURÈENÝ') ) ;
#198 = DIRECTION ( 'NONE',  ( -0.000000000000000000, -0.000000000000000000, -1.000000000000000000 ) ) ;
#199 = APPROVAL_DATE_TIME ( #122, #219 ) ;
#200 = AXIS2_PLACEMENT_3D ( 'NONE', #169, #66, #138 ) ;
#201 = PERSON_AND_ORGANIZATION_ROLE ( 'creator' ) ;
#202 = DATE_AND_TIME ( #94, #91 ) ;
#203 = LINE ( 'NONE', #109, #253 ) ;
#204 = PERSON_AND_ORGANIZATION_ROLE ( 'classification_officer' ) ;
#205 = ORIENTED_EDGE ( 'NONE', *, *, #226, .F. ) ;
#206 = DIRECTION ( 'NONE',  ( -0.000000000000000000, -0.000000000000000000, -1.000000000000000000 ) ) ;
#207 = ORIENTED_EDGE ( 'NONE', *, *, #187, .T. ) ;
#208 = EDGE_CURVE ( 'NONE', #133, #229, #192, .T. ) ;
#209 = ORIENTED_EDGE ( 'NONE', *, *, #181, .F. ) ;
#210 = DIRECTION ( 'NONE',  ( 0.000000000000000000, 0.000000000000000000, 1.000000000000000000 ) ) ;
#211 = CARTESIAN_POINT ( 'NONE',  ( 0.000000000000000000, 0.000000000000000000, 315.0000000000000000 ) ) ;
#212 = CIRCLE ( 'NONE', #152, 4.500000000000000888 ) ;
#213 = APPLICATION_CONTEXT ( 'configuration controlled 3d designs of mechanical parts and assemblies' ) ;
#214 = COORDINATED_UNIVERSAL_TIME_OFFSET ( 1, 0, .AHEAD. ) ;
#215 = DIRECTION ( 'NONE',  ( 0.000000000000000000, 0.000000000000000000, 1.000000000000000000 ) ) ;
#216 = LINE ( 'NONE', #195, #238 ) ;
#217 = CALENDAR_DATE ( 2023, 12, 2 ) ;
#218 = CLOSED_SHELL ( 'NONE', ( #110, #47, #114, #12, #191, #179, #22 ) ) ;
#219 = APPROVAL ( #237, 'NEURÈENÝ' ) ;
#220 = VERTEX_POINT ( 'NONE', #250 ) ;
#221 = VECTOR ( 'NONE', #85, 1000.000000000000000 ) ;
#222 = DIRECTION ( 'NONE',  ( 0.000000000000000000, 0.000000000000000000, 1.000000000000000000 ) ) ;
#223 = UNCERTAINTY_MEASURE_WITH_UNIT (LENGTH_MEASURE( 1.000000000000000082E-05 ), #28, 'distance_accuracy_value', 'NONE');
#224 = CARTESIAN_POINT ( 'NONE',  ( 0.000000000000000000, 0.000000000000000000, 5.000000000000000000 ) ) ;
#225 = ORIENTED_EDGE ( 'NONE', *, *, #17, .F. ) ;
#226 = EDGE_CURVE ( 'NONE', #118, #70, #142, .T. ) ;
#227 = ORIENTED_EDGE ( 'NONE', *, *, #231, .F. ) ;
#228 = SHAPE_DEFINITION_REPRESENTATION ( #3, #81 ) ;
#229 = VERTEX_POINT ( 'NONE', #72 ) ;
#230 = CYLINDRICAL_SURFACE ( 'NONE', #31, 4.500000000000000888 ) ;
#231 = EDGE_CURVE ( 'NONE', #220, #125, #147, .T. ) ;
#232 = DIRECTION ( 'NONE',  ( 1.000000000000000000, 0.000000000000000000, 0.000000000000000000 ) ) ;
#233 = PERSON_AND_ORGANIZATION ( #197, #254 ) ;
#234 = PERSON_AND_ORGANIZATION_ROLE ( 'creator' ) ;
#235 = EDGE_CURVE ( 'NONE', #51, #57, #62, .T. ) ;
#236 = APPROVAL_STATUS ( 'not_yet_approved' ) ;
#237 = APPROVAL_STATUS ( 'not_yet_approved' ) ;
#238 = VECTOR ( 'NONE', #42, 1000.000000000000000 ) ;
#239 = CC_DESIGN_APPROVAL ( #219, ( #82 ) ) ;
#240 = APPLICATION_PROTOCOL_DEFINITION ( 'international standard', 'config_control_design', 1994, #213 ) ;
#241 = AXIS2_PLACEMENT_3D ( 'NONE', #154, #222, #46 ) ;
#242 = CC_DESIGN_PERSON_AND_ORGANIZATION_ASSIGNMENT ( #193, #26, ( #178 ) ) ;
#243 = DIRECTION ( 'NONE',  ( 1.000000000000000000, 0.000000000000000000, 0.000000000000000000 ) ) ;
#244 = ORIENTED_EDGE ( 'NONE', *, *, #235, .T. ) ;
#245 = CARTESIAN_POINT ( 'NONE',  ( -4.500000000000000888, 0.000000000000000000, 315.0000000000000000 ) ) ;
#246 = DESIGN_CONTEXT ( 'detailed design', #213, 'design' ) ;
#247 = COORDINATED_UNIVERSAL_TIME_OFFSET ( 1, 0, .AHEAD. ) ;
#248 = ORIENTED_EDGE ( 'NONE', *, *, #151, .F. ) ;
#249 = DIRECTION ( 'NONE',  ( 0.000000000000000000, 0.000000000000000000, 1.000000000000000000 ) ) ;
#250 = CARTESIAN_POINT ( 'NONE',  ( -4.500000000000000888, 0.000000000000000000, 315.0000000000000000 ) ) ;
#251 = ORIENTED_EDGE ( 'NONE', *, *, #235, .F. ) ;
#252 = CC_DESIGN_PERSON_AND_ORGANIZATION_ASSIGNMENT ( #140, #201, ( #82 ) ) ;
#253 = VECTOR ( 'NONE', #7, 1000.000000000000000 ) ;
#254 = ORGANIZATION ( 'NEURÈENÝ', 'NEURÈENÝ', '' ) ;
#255 = DIRECTION ( 'NONE',  ( 0.000000000000000000, 0.000000000000000000, 1.000000000000000000 ) ) ;
ENDSEC;
END-ISO-10303-21;
