ISO-10303-21;
HEADER;
FILE_DESCRIPTION (( 'STEP AP203' ),
    '1' );
FILE_NAME ('0c08.STEP',
    '2023-02-12T12:46:00',
    ( '' ),
    ( '' ),
    'SwSTEP 2.0',
    'SolidWorks 2019',
    '' );
FILE_SCHEMA (( 'CONFIG_CONTROL_DESIGN' ));
ENDSEC;

DATA;
#1 = ADVANCED_FACE ( 'NONE', ( #26 ), #102, .T. ) ;
#2 = CARTESIAN_POINT ( 'NONE',  ( 3.000000000000000444, 3.673940397442060361E-16, 3.000000000000000000 ) ) ;
#3 = AXIS2_PLACEMENT_3D ( 'NONE', #209, #31, #106 ) ;
#4 = CARTESIAN_POINT ( 'NONE',  ( -1.500000000000000222, 0.000000000000000000, 3.000000000000000000 ) ) ;
#5 = ORIENTED_EDGE ( 'NONE', *, *, #9, .F. ) ;
#6 = EDGE_LOOP ( 'NONE', ( #116, #219, #40, #93 ) ) ;
#7 = ORIENTED_EDGE ( 'NONE', *, *, #86, .F. ) ;
#8 = CARTESIAN_POINT ( 'NONE',  ( 0.000000000000000000, 0.000000000000000000, 315.0000000000000000 ) ) ;
#9 = EDGE_CURVE ( 'NONE', #49, #39, #149, .T. ) ;
#10 = CARTESIAN_POINT ( 'NONE',  ( -3.000000000000000444, 0.000000000000000000, 0.000000000000000000 ) ) ;
#11 = DIRECTION ( 'NONE',  ( -0.000000000000000000, -0.000000000000000000, -1.000000000000000000 ) ) ;
#12 = APPROVAL_DATE_TIME ( #180, #134 ) ;
#13 = ORIENTED_EDGE ( 'NONE', *, *, #169, .F. ) ;
#14 = FACE_OUTER_BOUND ( 'NONE', #62, .T. ) ;
#15 = DIRECTION ( 'NONE',  ( 0.000000000000000000, 0.000000000000000000, 1.000000000000000000 ) ) ;
#16 = AXIS2_PLACEMENT_3D ( 'NONE', #21, #230, #189 ) ;
#17 = FACE_OUTER_BOUND ( 'NONE', #77, .T. ) ;
#18 = ADVANCED_FACE ( 'NONE', ( #70, #222 ), #167, .T. ) ;
#19 = SECURITY_CLASSIFICATION ( '', '', #91 ) ;
#20 = CARTESIAN_POINT ( 'NONE',  ( 0.000000000000000000, 0.000000000000000000, 3.000000000000000000 ) ) ;
#21 = CARTESIAN_POINT ( 'NONE',  ( 0.000000000000000000, 0.000000000000000000, 3.000000000000000000 ) ) ;
#22 = AXIS2_PLACEMENT_3D ( 'NONE', #53, #213, #35 ) ;
#23 = APPROVAL_STATUS ( 'not_yet_approved' ) ;
#24 = PRODUCT_RELATED_PRODUCT_CATEGORY ( 'detail', '', ( #190 ) ) ;
#25 = CARTESIAN_POINT ( 'NONE',  ( 0.000000000000000000, 0.000000000000000000, 0.000000000000000000 ) ) ;
#26 = FACE_OUTER_BOUND ( 'NONE', #83, .T. ) ;
#27 = CALENDAR_DATE ( 2023, 12, 2 ) ;
#28 = CARTESIAN_POINT ( 'NONE',  ( 0.000000000000000000, 0.000000000000000000, 0.000000000000000000 ) ) ;
#29 = APPLICATION_CONTEXT ( 'configuration controlled 3d designs of mechanical parts and assemblies' ) ;
#30 = PERSON_AND_ORGANIZATION ( #141, #182 ) ;
#31 = DIRECTION ( 'NONE',  ( 0.000000000000000000, 0.000000000000000000, 1.000000000000000000 ) ) ;
#32 = APPROVAL_STATUS ( 'not_yet_approved' ) ;
#33 = DIRECTION ( 'NONE',  ( 0.000000000000000000, 0.000000000000000000, 1.000000000000000000 ) ) ;
#34 = CARTESIAN_POINT ( 'NONE',  ( 3.000000000000000444, 3.673940397442060361E-16, 0.000000000000000000 ) ) ;
#35 = DIRECTION ( 'NONE',  ( 1.000000000000000000, 0.000000000000000000, 0.000000000000000000 ) ) ;
#36 =( NAMED_UNIT ( * ) SI_UNIT ( $, .STERADIAN. ) SOLID_ANGLE_UNIT ( ) );
#37 = CC_DESIGN_PERSON_AND_ORGANIZATION_ASSIGNMENT ( #46, #68, ( #152 ) ) ;
#38 = APPLICATION_PROTOCOL_DEFINITION ( 'international standard', 'config_control_design', 1994, #163 ) ;
#39 = VERTEX_POINT ( 'NONE', #10 ) ;
#40 = ORIENTED_EDGE ( 'NONE', *, *, #160, .T. ) ;
#41 = COORDINATED_UNIVERSAL_TIME_OFFSET ( 1, 0, .AHEAD. ) ;
#42 = AXIS2_PLACEMENT_3D ( 'NONE', #121, #67, #211 ) ;
#43 = CC_DESIGN_APPROVAL ( #212, ( #129 ) ) ;
#44 = CALENDAR_DATE ( 2023, 12, 2 ) ;
#45 = ORIENTED_EDGE ( 'NONE', *, *, #227, .T. ) ;
#46 = PERSON_AND_ORGANIZATION ( #141, #182 ) ;
#47 = DIRECTION ( 'NONE',  ( 0.000000000000000000, 0.000000000000000000, 1.000000000000000000 ) ) ;
#48 = LOCAL_TIME ( 13, 46, 0.000000000000000000, #225 ) ;
#49 = VERTEX_POINT ( 'NONE', #165 ) ;
#50 = DATE_AND_TIME ( #63, #48 ) ;
#51 = DIRECTION ( 'NONE',  ( -0.000000000000000000, -0.000000000000000000, -1.000000000000000000 ) ) ;
#52 =( GEOMETRIC_REPRESENTATION_CONTEXT ( 3 ) GLOBAL_UNCERTAINTY_ASSIGNED_CONTEXT ( ( #140 ) ) GLOBAL_UNIT_ASSIGNED_CONTEXT ( ( #191, #55, #36 ) ) REPRESENTATION_CONTEXT ( 'NONE', 'WORKASPACE' ) );
#53 = CARTESIAN_POINT ( 'NONE',  ( 0.000000000000000000, 0.000000000000000000, 3.000000000000000000 ) ) ;
#54 = CIRCLE ( 'NONE', #217, 3.000000000000000444 ) ;
#55 =( NAMED_UNIT ( * ) PLANE_ANGLE_UNIT ( ) SI_UNIT ( $, .RADIAN. ) );
#56 = CARTESIAN_POINT ( 'NONE',  ( 0.000000000000000000, 0.000000000000000000, 0.000000000000000000 ) ) ;
#57 = ORIENTED_EDGE ( 'NONE', *, *, #74, .F. ) ;
#58 = CC_DESIGN_PERSON_AND_ORGANIZATION_ASSIGNMENT ( #30, #208, ( #129 ) ) ;
#59 = PERSON_AND_ORGANIZATION ( #141, #182 ) ;
#60 = PERSON_AND_ORGANIZATION ( #141, #182 ) ;
#61 = EDGE_LOOP ( 'NONE', ( #195, #7 ) ) ;
#62 = EDGE_LOOP ( 'NONE', ( #80, #45, #79, #234 ) ) ;
#63 = CALENDAR_DATE ( 2023, 12, 2 ) ;
#64 = DIRECTION ( 'NONE',  ( -1.000000000000000000, 0.000000000000000000, 0.000000000000000000 ) ) ;
#65 = ADVANCED_FACE ( 'NONE', ( #150 ), #226, .T. ) ;
#66 = CALENDAR_DATE ( 2023, 12, 2 ) ;
#67 = DIRECTION ( 'NONE',  ( -0.000000000000000000, -0.000000000000000000, -1.000000000000000000 ) ) ;
#68 = PERSON_AND_ORGANIZATION_ROLE ( 'creator' ) ;
#69 = ORIENTED_EDGE ( 'NONE', *, *, #200, .F. ) ;
#70 = FACE_BOUND ( 'NONE', #61, .T. ) ;
#71 = CC_DESIGN_DATE_AND_TIME_ASSIGNMENT ( #249, #246, ( #152 ) ) ;
#72 = CARTESIAN_POINT ( 'NONE',  ( 1.500000000000000222, 1.836970198721030181E-16, 315.0000000000000000 ) ) ;
#73 = CARTESIAN_POINT ( 'NONE',  ( 3.000000000000000444, 3.673940397442060361E-16, 3.000000000000000000 ) ) ;
#74 = EDGE_CURVE ( 'NONE', #236, #49, #54, .T. ) ;
#75 = CARTESIAN_POINT ( 'NONE',  ( 0.000000000000000000, 0.000000000000000000, 315.0000000000000000 ) ) ;
#76 = DIRECTION ( 'NONE',  ( 0.000000000000000000, 0.000000000000000000, 1.000000000000000000 ) ) ;
#77 = EDGE_LOOP ( 'NONE', ( #57, #197, #179, #5 ) ) ;
#78 = PERSON_AND_ORGANIZATION ( #141, #182 ) ;
#79 = ORIENTED_EDGE ( 'NONE', *, *, #86, .T. ) ;
#80 = ORIENTED_EDGE ( 'NONE', *, *, #194, .F. ) ;
#81 = CIRCLE ( 'NONE', #198, 1.500000000000000222 ) ;
#82 = DATE_AND_TIME ( #201, #146 ) ;
#83 = EDGE_LOOP ( 'NONE', ( #204, #69, #174, #137 ) ) ;
#84 = CC_DESIGN_SECURITY_CLASSIFICATION ( #19, ( #129 ) ) ;
#85 = CARTESIAN_POINT ( 'NONE',  ( 0.000000000000000000, 0.000000000000000000, 315.0000000000000000 ) ) ;
#86 = EDGE_CURVE ( 'NONE', #156, #187, #81, .T. ) ;
#87 = APPROVAL_ROLE ( '' ) ;
#88 = CYLINDRICAL_SURFACE ( 'NONE', #228, 1.500000000000000222 ) ;
#89 = AXIS2_PLACEMENT_3D ( 'NONE', #25, #168, #245 ) ;
#90 = CIRCLE ( 'NONE', #155, 1.500000000000000222 ) ;
#91 = SECURITY_CLASSIFICATION_LEVEL ( 'unclassified' ) ;
#92 = APPROVAL_PERSON_ORGANIZATION ( #60, #166, #205 ) ;
#93 = ORIENTED_EDGE ( 'NONE', *, *, #233, .T. ) ;
#94 = DIRECTION ( 'NONE',  ( -0.000000000000000000, -0.000000000000000000, -1.000000000000000000 ) ) ;
#95 = CC_DESIGN_PERSON_AND_ORGANIZATION_ASSIGNMENT ( #148, #242, ( #19 ) ) ;
#96 = CARTESIAN_POINT ( 'NONE',  ( 0.000000000000000000, 0.000000000000000000, 315.0000000000000000 ) ) ;
#97 = CC_DESIGN_DATE_AND_TIME_ASSIGNMENT ( #50, #143, ( #19 ) ) ;
#98 = CIRCLE ( 'NONE', #22, 1.500000000000000222 ) ;
#99 = ORIENTED_EDGE ( 'NONE', *, *, #194, .T. ) ;
#100 = PERSON_AND_ORGANIZATION ( #141, #182 ) ;
#101 = DIRECTION ( 'NONE',  ( 1.000000000000000000, 0.000000000000000000, -0.000000000000000000 ) ) ;
#102 = CYLINDRICAL_SURFACE ( 'NONE', #42, 3.000000000000000444 ) ;
#103 = EDGE_CURVE ( 'NONE', #177, #39, #210, .T. ) ;
#104 = COORDINATED_UNIVERSAL_TIME_OFFSET ( 1, 0, .AHEAD. ) ;
#105 = CARTESIAN_POINT ( 'NONE',  ( 1.500000000000000222, 1.836970198721030181E-16, 3.000000000000000000 ) ) ;
#106 = DIRECTION ( 'NONE',  ( 1.000000000000000000, 0.000000000000000000, 0.000000000000000000 ) ) ;
#107 = APPROVAL_DATE_TIME ( #82, #166 ) ;
#108 = CARTESIAN_POINT ( 'NONE',  ( -3.000000000000000444, 0.000000000000000000, 3.000000000000000000 ) ) ;
#109 = DESIGN_CONTEXT ( 'detailed design', #29, 'design' ) ;
#110 = CARTESIAN_POINT ( 'NONE',  ( 0.000000000000000000, 0.000000000000000000, 315.0000000000000000 ) ) ;
#111 = ADVANCED_FACE ( 'NONE', ( #14 ), #88, .T. ) ;
#112 = DIRECTION ( 'NONE',  ( 1.000000000000000000, 0.000000000000000000, 0.000000000000000000 ) ) ;
#113 = PRODUCT_DEFINITION_SHAPE ( 'NONE', 'NONE',  #152 ) ;
#114 = AXIS2_PLACEMENT_3D ( 'NONE', #56, #135, #117 ) ;
#115 = CIRCLE ( 'NONE', #3, 3.000000000000000444 ) ;
#116 = ORIENTED_EDGE ( 'NONE', *, *, #227, .F. ) ;
#117 = DIRECTION ( 'NONE',  ( 1.000000000000000000, 0.000000000000000000, 0.000000000000000000 ) ) ;
#118 = ORIENTED_EDGE ( 'NONE', *, *, #103, .F. ) ;
#119 = CARTESIAN_POINT ( 'NONE',  ( 0.000000000000000000, 0.000000000000000000, 3.000000000000000000 ) ) ;
#120 = CC_DESIGN_PERSON_AND_ORGANIZATION_ASSIGNMENT ( #78, #158, ( #190 ) ) ;
#121 = CARTESIAN_POINT ( 'NONE',  ( 0.000000000000000000, 0.000000000000000000, 3.000000000000000000 ) ) ;
#122 = AXIS2_PLACEMENT_3D ( 'NONE', #75, #171, #214 ) ;
#123 = MANIFOLD_SOLID_BREP ( 'Pøidat vysunutím3', #133 ) ;
#124 = COORDINATED_UNIVERSAL_TIME_OFFSET ( 1, 0, .AHEAD. ) ;
#125 = EDGE_LOOP ( 'NONE', ( #202, #99 ) ) ;
#126 = FACE_OUTER_BOUND ( 'NONE', #176, .T. ) ;
#127 = VERTEX_POINT ( 'NONE', #144 ) ;
#128 = DIRECTION ( 'NONE',  ( 1.000000000000000000, 0.000000000000000000, 0.000000000000000000 ) ) ;
#129 = PRODUCT_DEFINITION_FORMATION_WITH_SPECIFIED_SOURCE ( 'LIBOVOLNÝ', '', #190, .NOT_KNOWN. ) ;
#130 = DIRECTION ( 'NONE',  ( -0.000000000000000000, -0.000000000000000000, -1.000000000000000000 ) ) ;
#131 = ADVANCED_FACE ( 'NONE', ( #126 ), #223, .F. ) ;
#132 = LINE ( 'NONE', #73, #151 ) ;
#133 = CLOSED_SHELL ( 'NONE', ( #111, #186, #1, #18, #131, #65, #207 ) ) ;
#134 = APPROVAL ( #23, 'NEURÈENÝ' ) ;
#135 = DIRECTION ( 'NONE',  ( 0.000000000000000000, 0.000000000000000000, 1.000000000000000000 ) ) ;
#136 = AXIS2_PLACEMENT_3D ( 'NONE', #96, #76, #172 ) ;
#137 = ORIENTED_EDGE ( 'NONE', *, *, #169, .T. ) ;
#138 = APPROVAL_ROLE ( '' ) ;
#139 = CC_DESIGN_PERSON_AND_ORGANIZATION_ASSIGNMENT ( #244, #203, ( #129 ) ) ;
#140 = UNCERTAINTY_MEASURE_WITH_UNIT (LENGTH_MEASURE( 1.000000000000000082E-05 ), #191, 'distance_accuracy_value', 'NONE');
#141 = PERSON ( 'NEURÈENÝ', 'NEURÈENÝ', 'NEURÈENÝ', ('NEURÈENÝ'), ('NEURÈENÝ'), ('NEURÈENÝ') ) ;
#142 = DIRECTION ( 'NONE',  ( -0.000000000000000000, -0.000000000000000000, -1.000000000000000000 ) ) ;
#143 = DATE_TIME_ROLE ( 'classification_date' ) ;
#144 = CARTESIAN_POINT ( 'NONE',  ( -1.500000000000000222, 0.000000000000000000, 315.0000000000000000 ) ) ;
#145 = APPROVAL_DATE_TIME ( #183, #212 ) ;
#146 = LOCAL_TIME ( 13, 46, 0.000000000000000000, #221 ) ;
#147 = DIRECTION ( 'NONE',  ( 1.000000000000000000, 0.000000000000000000, -0.000000000000000000 ) ) ;
#148 = PERSON_AND_ORGANIZATION ( #141, #182 ) ;
#149 = LINE ( 'NONE', #108, #192 ) ;
#150 = FACE_OUTER_BOUND ( 'NONE', #6, .T. ) ;
#151 = VECTOR ( 'NONE', #94, 1000.000000000000000 ) ;
#152 = PRODUCT_DEFINITION ( 'NEZNÁMÝ', '', #129, #109 ) ;
#153 = LINE ( 'NONE', #72, #215 ) ;
#154 = FACE_OUTER_BOUND ( 'NONE', #125, .T. ) ;
#155 = AXIS2_PLACEMENT_3D ( 'NONE', #110, #255, #112 ) ;
#156 = VERTEX_POINT ( 'NONE', #105 ) ;
#157 = CC_DESIGN_APPROVAL ( #134, ( #152 ) ) ;
#158 = PERSON_AND_ORGANIZATION_ROLE ( 'design_owner' ) ;
#159 = SHAPE_DEFINITION_REPRESENTATION ( #113, #252 ) ;
#160 = EDGE_CURVE ( 'NONE', #127, #187, #181, .T. ) ;
#161 = DIRECTION ( 'NONE',  ( -1.000000000000000000, 0.000000000000000000, 0.000000000000000000 ) ) ;
#162 = ORIENTED_EDGE ( 'NONE', *, *, #74, .T. ) ;
#163 = APPLICATION_CONTEXT ( 'configuration controlled 3d designs of mechanical parts and assemblies' ) ;
#164 = AXIS2_PLACEMENT_3D ( 'NONE', #184, #250, #147 ) ;
#165 = CARTESIAN_POINT ( 'NONE',  ( -3.000000000000000444, 0.000000000000000000, 3.000000000000000000 ) ) ;
#166 = APPROVAL ( #32, 'NEURÈENÝ' ) ;
#167 = PLANE ( 'NONE',  #164 ) ;
#168 = DIRECTION ( 'NONE',  ( 0.000000000000000000, 0.000000000000000000, 1.000000000000000000 ) ) ;
#169 = EDGE_CURVE ( 'NONE', #39, #177, #115, .T. ) ;
#170 = CYLINDRICAL_SURFACE ( 'NONE', #16, 3.000000000000000444 ) ;
#171 = DIRECTION ( 'NONE',  ( 0.000000000000000000, 0.000000000000000000, 1.000000000000000000 ) ) ;
#172 = DIRECTION ( 'NONE',  ( 1.000000000000000000, 0.000000000000000000, 0.000000000000000000 ) ) ;
#173 = LOCAL_TIME ( 13, 46, 0.000000000000000000, #41 ) ;
#174 = ORIENTED_EDGE ( 'NONE', *, *, #9, .T. ) ;
#175 = EDGE_LOOP ( 'NONE', ( #218, #162 ) ) ;
#176 = EDGE_LOOP ( 'NONE', ( #13, #118 ) ) ;
#177 = VERTEX_POINT ( 'NONE', #34 ) ;
#178 = EDGE_CURVE ( 'NONE', #236, #177, #132, .T. ) ;
#179 = ORIENTED_EDGE ( 'NONE', *, *, #103, .T. ) ;
#180 = DATE_AND_TIME ( #27, #173 ) ;
#181 = LINE ( 'NONE', #185, #232 ) ;
#182 = ORGANIZATION ( 'NEURÈENÝ', 'NEURÈENÝ', '' ) ;
#183 = DATE_AND_TIME ( #66, #193 ) ;
#184 = CARTESIAN_POINT ( 'NONE',  ( 0.000000000000000000, 0.000000000000000000, 3.000000000000000000 ) ) ;
#185 = CARTESIAN_POINT ( 'NONE',  ( -1.500000000000000222, 0.000000000000000000, 315.0000000000000000 ) ) ;
#186 = ADVANCED_FACE ( 'NONE', ( #17 ), #170, .T. ) ;
#187 = VERTEX_POINT ( 'NONE', #4 ) ;
#188 = CARTESIAN_POINT ( 'NONE',  ( 0.000000000000000000, 0.000000000000000000, 3.000000000000000000 ) ) ;
#189 = DIRECTION ( 'NONE',  ( -1.000000000000000000, 0.000000000000000000, 0.000000000000000000 ) ) ;
#190 = PRODUCT ( '0c08', '0c08', '', ( #196 ) ) ;
#191 =( LENGTH_UNIT ( ) NAMED_UNIT ( * ) SI_UNIT ( .MILLI., .METRE. ) );
#192 = VECTOR ( 'NONE', #142, 1000.000000000000000 ) ;
#193 = LOCAL_TIME ( 13, 46, 0.000000000000000000, #124 ) ;
#194 = EDGE_CURVE ( 'NONE', #247, #127, #199, .T. ) ;
#195 = ORIENTED_EDGE ( 'NONE', *, *, #233, .F. ) ;
#196 = MECHANICAL_CONTEXT ( 'NONE', #163, 'mechanical' ) ;
#197 = ORIENTED_EDGE ( 'NONE', *, *, #178, .T. ) ;
#198 = AXIS2_PLACEMENT_3D ( 'NONE', #119, #33, #206 ) ;
#199 = CIRCLE ( 'NONE', #136, 1.500000000000000222 ) ;
#200 = EDGE_CURVE ( 'NONE', #49, #236, #240, .T. ) ;
#201 = CALENDAR_DATE ( 2023, 12, 2 ) ;
#202 = ORIENTED_EDGE ( 'NONE', *, *, #239, .T. ) ;
#203 = PERSON_AND_ORGANIZATION_ROLE ( 'design_supplier' ) ;
#204 = ORIENTED_EDGE ( 'NONE', *, *, #178, .F. ) ;
#205 = APPROVAL_ROLE ( '' ) ;
#206 = DIRECTION ( 'NONE',  ( 1.000000000000000000, 0.000000000000000000, 0.000000000000000000 ) ) ;
#207 = ADVANCED_FACE ( 'NONE', ( #154 ), #254, .T. ) ;
#208 = PERSON_AND_ORGANIZATION_ROLE ( 'creator' ) ;
#209 = CARTESIAN_POINT ( 'NONE',  ( 0.000000000000000000, 0.000000000000000000, 0.000000000000000000 ) ) ;
#210 = CIRCLE ( 'NONE', #89, 3.000000000000000444 ) ;
#211 = DIRECTION ( 'NONE',  ( -1.000000000000000000, 0.000000000000000000, 0.000000000000000000 ) ) ;
#212 = APPROVAL ( #224, 'NEURÈENÝ' ) ;
#213 = DIRECTION ( 'NONE',  ( 0.000000000000000000, 0.000000000000000000, 1.000000000000000000 ) ) ;
#214 = DIRECTION ( 'NONE',  ( 1.000000000000000000, 0.000000000000000000, -0.000000000000000000 ) ) ;
#215 = VECTOR ( 'NONE', #130, 1000.000000000000000 ) ;
#216 = APPROVAL_PERSON_ORGANIZATION ( #100, #212, #87 ) ;
#217 = AXIS2_PLACEMENT_3D ( 'NONE', #188, #243, #229 ) ;
#218 = ORIENTED_EDGE ( 'NONE', *, *, #200, .T. ) ;
#219 = ORIENTED_EDGE ( 'NONE', *, *, #239, .F. ) ;
#220 = AXIS2_PLACEMENT_3D ( 'NONE', #28, #47, #101 ) ;
#221 = COORDINATED_UNIVERSAL_TIME_OFFSET ( 1, 0, .AHEAD. ) ;
#222 = FACE_OUTER_BOUND ( 'NONE', #175, .T. ) ;
#223 = PLANE ( 'NONE',  #220 ) ;
#224 = APPROVAL_STATUS ( 'not_yet_approved' ) ;
#225 = COORDINATED_UNIVERSAL_TIME_OFFSET ( 1, 0, .AHEAD. ) ;
#226 = CYLINDRICAL_SURFACE ( 'NONE', #253, 1.500000000000000222 ) ;
#227 = EDGE_CURVE ( 'NONE', #247, #156, #153, .T. ) ;
#228 = AXIS2_PLACEMENT_3D ( 'NONE', #8, #251, #64 ) ;
#229 = DIRECTION ( 'NONE',  ( 1.000000000000000000, 0.000000000000000000, 0.000000000000000000 ) ) ;
#230 = DIRECTION ( 'NONE',  ( -0.000000000000000000, -0.000000000000000000, -1.000000000000000000 ) ) ;
#231 = CARTESIAN_POINT ( 'NONE',  ( 1.500000000000000222, 1.836970198721030181E-16, 315.0000000000000000 ) ) ;
#232 = VECTOR ( 'NONE', #11, 1000.000000000000000 ) ;
#233 = EDGE_CURVE ( 'NONE', #187, #156, #98, .T. ) ;
#234 = ORIENTED_EDGE ( 'NONE', *, *, #160, .F. ) ;
#235 = AXIS2_PLACEMENT_3D ( 'NONE', #20, #15, #128 ) ;
#236 = VERTEX_POINT ( 'NONE', #2 ) ;
#237 = APPROVAL_PERSON_ORGANIZATION ( #59, #134, #138 ) ;
#238 = APPLICATION_PROTOCOL_DEFINITION ( 'international standard', 'config_control_design', 1994, #29 ) ;
#239 = EDGE_CURVE ( 'NONE', #127, #247, #90, .T. ) ;
#240 = CIRCLE ( 'NONE', #235, 3.000000000000000444 ) ;
#241 = LOCAL_TIME ( 13, 46, 0.000000000000000000, #104 ) ;
#242 = PERSON_AND_ORGANIZATION_ROLE ( 'classification_officer' ) ;
#243 = DIRECTION ( 'NONE',  ( 0.000000000000000000, 0.000000000000000000, 1.000000000000000000 ) ) ;
#244 = PERSON_AND_ORGANIZATION ( #141, #182 ) ;
#245 = DIRECTION ( 'NONE',  ( 1.000000000000000000, 0.000000000000000000, 0.000000000000000000 ) ) ;
#246 = DATE_TIME_ROLE ( 'creation_date' ) ;
#247 = VERTEX_POINT ( 'NONE', #231 ) ;
#248 = CC_DESIGN_APPROVAL ( #166, ( #19 ) ) ;
#249 = DATE_AND_TIME ( #44, #241 ) ;
#250 = DIRECTION ( 'NONE',  ( 0.000000000000000000, 0.000000000000000000, 1.000000000000000000 ) ) ;
#251 = DIRECTION ( 'NONE',  ( -0.000000000000000000, -0.000000000000000000, -1.000000000000000000 ) ) ;
#252 = ADVANCED_BREP_SHAPE_REPRESENTATION ( '0c08', ( #123, #114 ), #52 ) ;
#253 = AXIS2_PLACEMENT_3D ( 'NONE', #85, #51, #161 ) ;
#254 = PLANE ( 'NONE',  #122 ) ;
#255 = DIRECTION ( 'NONE',  ( 0.000000000000000000, 0.000000000000000000, 1.000000000000000000 ) ) ;
ENDSEC;
END-ISO-10303-21;
