ISO-10303-21;
HEADER;
FILE_DESCRIPTION (( 'STEP AP203' ),
    '1' );
FILE_NAME ('d9a2.STEP',
    '2023-02-12T11:14:56',
    ( '' ),
    ( '' ),
    'SwSTEP 2.0',
    'SolidWorks 2019',
    '' );
FILE_SCHEMA (( 'CONFIG_CONTROL_DESIGN' ));
ENDSEC;

DATA;
#1 = DATE_AND_TIME ( #214, #171 ) ;
#2 = CYLINDRICAL_SURFACE ( 'NONE', #89, 5.500000000000000000 ) ;
#3 = DIRECTION ( 'NONE',  ( 1.000000000000000000, 0.000000000000000000, 0.000000000000000000 ) ) ;
#4 = DATE_AND_TIME ( #254, #200 ) ;
#5 = APPLICATION_PROTOCOL_DEFINITION ( 'international standard', 'config_control_design', 1994, #126 ) ;
#6 = PERSON_AND_ORGANIZATION_ROLE ( 'creator' ) ;
#7 = EDGE_LOOP ( 'NONE', ( #9, #119 ) ) ;
#8 = ORIENTED_EDGE ( 'NONE', *, *, #83, .T. ) ;
#9 = ORIENTED_EDGE ( 'NONE', *, *, #155, .F. ) ;
#10 = PLANE ( 'NONE',  #70 ) ;
#11 = DIRECTION ( 'NONE',  ( 0.000000000000000000, 0.000000000000000000, 1.000000000000000000 ) ) ;
#12 = AXIS2_PLACEMENT_3D ( 'NONE', #255, #154, #88 ) ;
#13 = FACE_OUTER_BOUND ( 'NONE', #103, .T. ) ;
#14 = CARTESIAN_POINT ( 'NONE',  ( 0.000000000000000000, 0.000000000000000000, 5.000000000000000000 ) ) ;
#15 = APPROVAL_DATE_TIME ( #4, #220 ) ;
#16 = CARTESIAN_POINT ( 'NONE',  ( 0.000000000000000000, 0.000000000000000000, 5.000000000000000000 ) ) ;
#17 = SECURITY_CLASSIFICATION_LEVEL ( 'unclassified' ) ;
#18 = APPROVAL_STATUS ( 'not_yet_approved' ) ;
#19 = ADVANCED_FACE ( 'NONE', ( #146 ), #229, .F. ) ;
#20 = ORIENTED_EDGE ( 'NONE', *, *, #83, .F. ) ;
#21 = APPROVAL_ROLE ( '' ) ;
#22 = VERTEX_POINT ( 'NONE', #49 ) ;
#23 = EDGE_CURVE ( 'NONE', #22, #81, #51, .T. ) ;
#24 = AXIS2_PLACEMENT_3D ( 'NONE', #190, #189, #50 ) ;
#25 =( GEOMETRIC_REPRESENTATION_CONTEXT ( 3 ) GLOBAL_UNCERTAINTY_ASSIGNED_CONTEXT ( ( #127 ) ) GLOBAL_UNIT_ASSIGNED_CONTEXT ( ( #234, #236, #197 ) ) REPRESENTATION_CONTEXT ( 'NONE', 'WORKASPACE' ) );
#26 = ORIENTED_EDGE ( 'NONE', *, *, #251, .T. ) ;
#27 = EDGE_LOOP ( 'NONE', ( #20, #183, #223, #141 ) ) ;
#28 = CARTESIAN_POINT ( 'NONE',  ( 5.500000000000000000, 6.735557395310442023E-16, 160.0000000000000000 ) ) ;
#29 = PERSON ( 'NEURÈENÝ', 'NEURÈENÝ', 'NEURÈENÝ', ('NEURÈENÝ'), ('NEURÈENÝ'), ('NEURÈENÝ') ) ;
#30 = DIRECTION ( 'NONE',  ( -0.000000000000000000, -0.000000000000000000, -1.000000000000000000 ) ) ;
#31 = CC_DESIGN_PERSON_AND_ORGANIZATION_ASSIGNMENT ( #77, #118, ( #172 ) ) ;
#32 = VERTEX_POINT ( 'NONE', #128 ) ;
#33 = CIRCLE ( 'NONE', #212, 5.500000000000000000 ) ;
#34 = DIRECTION ( 'NONE',  ( -1.000000000000000000, 0.000000000000000000, 0.000000000000000000 ) ) ;
#35 = AXIS2_PLACEMENT_3D ( 'NONE', #125, #227, #167 ) ;
#36 = CC_DESIGN_DATE_AND_TIME_ASSIGNMENT ( #79, #43, ( #117 ) ) ;
#37 = DIRECTION ( 'NONE',  ( -0.000000000000000000, -0.000000000000000000, -1.000000000000000000 ) ) ;
#38 = DIRECTION ( 'NONE',  ( 0.000000000000000000, 0.000000000000000000, 1.000000000000000000 ) ) ;
#39 = ADVANCED_FACE ( 'NONE', ( #65 ), #250, .T. ) ;
#40 = DESIGN_CONTEXT ( 'detailed design', #126, 'design' ) ;
#41 = DATE_AND_TIME ( #221, #233 ) ;
#42 = ORIENTED_EDGE ( 'NONE', *, *, #187, .F. ) ;
#43 = DATE_TIME_ROLE ( 'creation_date' ) ;
#44 = ORIENTED_EDGE ( 'NONE', *, *, #92, .T. ) ;
#45 = APPROVAL_PERSON_ORGANIZATION ( #217, #71, #139 ) ;
#46 = ORIENTED_EDGE ( 'NONE', *, *, #64, .F. ) ;
#47 = EDGE_CURVE ( 'NONE', #22, #184, #210, .T. ) ;
#48 = EDGE_LOOP ( 'NONE', ( #245, #247, #63, #207 ) ) ;
#49 = CARTESIAN_POINT ( 'NONE',  ( -5.500000000000000000, 0.000000000000000000, 160.0000000000000000 ) ) ;
#50 = DIRECTION ( 'NONE',  ( 1.000000000000000000, 0.000000000000000000, -0.000000000000000000 ) ) ;
#51 = CIRCLE ( 'NONE', #35, 5.500000000000000000 ) ;
#52 = APPROVAL_PERSON_ORGANIZATION ( #199, #220, #93 ) ;
#53 = DIRECTION ( 'NONE',  ( 0.000000000000000000, 0.000000000000000000, 1.000000000000000000 ) ) ;
#54 = DIRECTION ( 'NONE',  ( -0.000000000000000000, -0.000000000000000000, -1.000000000000000000 ) ) ;
#55 = CC_DESIGN_DATE_AND_TIME_ASSIGNMENT ( #1, #151, ( #134 ) ) ;
#56 = DIRECTION ( 'NONE',  ( -0.000000000000000000, -0.000000000000000000, -1.000000000000000000 ) ) ;
#57 = CIRCLE ( 'NONE', #169, 8.000000000000000000 ) ;
#58 = CC_DESIGN_APPROVAL ( #248, ( #117 ) ) ;
#59 = FACE_OUTER_BOUND ( 'NONE', #201, .T. ) ;
#60 = COORDINATED_UNIVERSAL_TIME_OFFSET ( 1, 0, .AHEAD. ) ;
#61 = MECHANICAL_CONTEXT ( 'NONE', #186, 'mechanical' ) ;
#62 = EDGE_LOOP ( 'NONE', ( #180, #101, #244, #140 ) ) ;
#63 = ORIENTED_EDGE ( 'NONE', *, *, #209, .T. ) ;
#64 = EDGE_CURVE ( 'NONE', #116, #159, #211, .T. ) ;
#65 = FACE_OUTER_BOUND ( 'NONE', #62, .T. ) ;
#66 = ADVANCED_FACE ( 'NONE', ( #104 ), #10, .T. ) ;
#67 = CC_DESIGN_APPROVAL ( #220, ( #134 ) ) ;
#68 = ORIENTED_EDGE ( 'NONE', *, *, #163, .T. ) ;
#69 = CARTESIAN_POINT ( 'NONE',  ( -5.500000000000000000, 0.000000000000000000, 160.0000000000000000 ) ) ;
#70 = AXIS2_PLACEMENT_3D ( 'NONE', #162, #11, #164 ) ;
#71 = APPROVAL ( #18, 'NEURÈENÝ' ) ;
#72 = CARTESIAN_POINT ( 'NONE',  ( 0.000000000000000000, 0.000000000000000000, 5.000000000000000000 ) ) ;
#73 = DIRECTION ( 'NONE',  ( 1.000000000000000000, 0.000000000000000000, 0.000000000000000000 ) ) ;
#74 = FACE_OUTER_BOUND ( 'NONE', #48, .T. ) ;
#75 = AXIS2_PLACEMENT_3D ( 'NONE', #130, #114, #87 ) ;
#76 = CARTESIAN_POINT ( 'NONE',  ( 0.000000000000000000, 0.000000000000000000, 0.000000000000000000 ) ) ;
#77 = PERSON_AND_ORGANIZATION ( #29, #188 ) ;
#78 = EDGE_LOOP ( 'NONE', ( #185, #26 ) ) ;
#79 = DATE_AND_TIME ( #156, #181 ) ;
#80 = EDGE_CURVE ( 'NONE', #159, #32, #57, .T. ) ;
#81 = VERTEX_POINT ( 'NONE', #28 ) ;
#82 = APPLICATION_PROTOCOL_DEFINITION ( 'international standard', 'config_control_design', 1994, #186 ) ;
#83 = EDGE_CURVE ( 'NONE', #230, #32, #106, .T. ) ;
#84 = CARTESIAN_POINT ( 'NONE',  ( -8.000000000000000000, 0.000000000000000000, 5.000000000000000000 ) ) ;
#85 = CIRCLE ( 'NONE', #142, 8.000000000000000000 ) ;
#86 = APPROVAL_PERSON_ORGANIZATION ( #158, #248, #21 ) ;
#87 = DIRECTION ( 'NONE',  ( 1.000000000000000000, 0.000000000000000000, -0.000000000000000000 ) ) ;
#88 = DIRECTION ( 'NONE',  ( 1.000000000000000000, 0.000000000000000000, 0.000000000000000000 ) ) ;
#89 = AXIS2_PLACEMENT_3D ( 'NONE', #239, #37, #129 ) ;
#90 = CARTESIAN_POINT ( 'NONE',  ( 8.000000000000000000, 9.797174393178825657E-16, 5.000000000000000000 ) ) ;
#91 = CARTESIAN_POINT ( 'NONE',  ( 0.000000000000000000, 0.000000000000000000, 5.000000000000000000 ) ) ;
#92 = EDGE_CURVE ( 'NONE', #116, #230, #105, .T. ) ;
#93 = APPROVAL_ROLE ( '' ) ;
#94 = LINE ( 'NONE', #252, #166 ) ;
#95 = CLOSED_SHELL ( 'NONE', ( #112, #224, #231, #241, #19, #39, #66 ) ) ;
#96 = PERSON_AND_ORGANIZATION_ROLE ( 'design_supplier' ) ;
#97 = CIRCLE ( 'NONE', #176, 5.500000000000000000 ) ;
#98 = PERSON_AND_ORGANIZATION ( #29, #188 ) ;
#99 = CC_DESIGN_PERSON_AND_ORGANIZATION_ASSIGNMENT ( #174, #238, ( #134 ) ) ;
#100 = COORDINATED_UNIVERSAL_TIME_OFFSET ( 1, 0, .AHEAD. ) ;
#101 = ORIENTED_EDGE ( 'NONE', *, *, #23, .F. ) ;
#102 = AXIS2_PLACEMENT_3D ( 'NONE', #16, #173, #237 ) ;
#103 = EDGE_LOOP ( 'NONE', ( #44, #68 ) ) ;
#104 = FACE_OUTER_BOUND ( 'NONE', #78, .T. ) ;
#105 = CIRCLE ( 'NONE', #138, 8.000000000000000000 ) ;
#106 = LINE ( 'NONE', #122, #218 ) ;
#107 = ADVANCED_BREP_SHAPE_REPRESENTATION ( 'd9a2', ( #246, #153 ), #25 ) ;
#108 = DIRECTION ( 'NONE',  ( 0.000000000000000000, 0.000000000000000000, 1.000000000000000000 ) ) ;
#109 = CARTESIAN_POINT ( 'NONE',  ( 0.000000000000000000, 0.000000000000000000, 160.0000000000000000 ) ) ;
#110 = COORDINATED_UNIVERSAL_TIME_OFFSET ( 1, 0, .AHEAD. ) ;
#111 = DIRECTION ( 'NONE',  ( 1.000000000000000000, 0.000000000000000000, 0.000000000000000000 ) ) ;
#112 = ADVANCED_FACE ( 'NONE', ( #74 ), #2, .T. ) ;
#113 = PRODUCT_DEFINITION_FORMATION_WITH_SPECIFIED_SOURCE ( 'LIBOVOLNÝ', '', #172, .NOT_KNOWN. ) ;
#114 = DIRECTION ( 'NONE',  ( 0.000000000000000000, 0.000000000000000000, 1.000000000000000000 ) ) ;
#115 = LOCAL_TIME ( 12, 14, 56.00000000000000000, #100 ) ;
#116 = VERTEX_POINT ( 'NONE', #150 ) ;
#117 = PRODUCT_DEFINITION ( 'NEZNÁMÝ', '', #113, #40 ) ;
#118 = PERSON_AND_ORGANIZATION_ROLE ( 'design_owner' ) ;
#119 = ORIENTED_EDGE ( 'NONE', *, *, #209, .F. ) ;
#120 = ORIENTED_EDGE ( 'NONE', *, *, #187, .T. ) ;
#121 = DIRECTION ( 'NONE',  ( 0.000000000000000000, 0.000000000000000000, 1.000000000000000000 ) ) ;
#122 = CARTESIAN_POINT ( 'NONE',  ( 8.000000000000000000, 9.797174393178825657E-16, 5.000000000000000000 ) ) ;
#123 = CIRCLE ( 'NONE', #161, 8.000000000000000000 ) ;
#124 = EDGE_CURVE ( 'NONE', #81, #143, #94, .T. ) ;
#125 = CARTESIAN_POINT ( 'NONE',  ( 0.000000000000000000, 0.000000000000000000, 160.0000000000000000 ) ) ;
#126 = APPLICATION_CONTEXT ( 'configuration controlled 3d designs of mechanical parts and assemblies' ) ;
#127 = UNCERTAINTY_MEASURE_WITH_UNIT (LENGTH_MEASURE( 1.000000000000000082E-05 ), #234, 'distance_accuracy_value', 'NONE');
#128 = CARTESIAN_POINT ( 'NONE',  ( 8.000000000000000000, 9.797174393178825657E-16, 0.000000000000000000 ) ) ;
#129 = DIRECTION ( 'NONE',  ( -1.000000000000000000, 0.000000000000000000, 0.000000000000000000 ) ) ;
#130 = CARTESIAN_POINT ( 'NONE',  ( 0.000000000000000000, 0.000000000000000000, 5.000000000000000000 ) ) ;
#131 = PRODUCT_DEFINITION_SHAPE ( 'NONE', 'NONE',  #117 ) ;
#132 = PLANE ( 'NONE',  #75 ) ;
#133 = CC_DESIGN_PERSON_AND_ORGANIZATION_ASSIGNMENT ( #222, #6, ( #117 ) ) ;
#134 = SECURITY_CLASSIFICATION ( '', '', #17 ) ;
#135 = DIRECTION ( 'NONE',  ( 0.000000000000000000, 0.000000000000000000, 1.000000000000000000 ) ) ;
#136 = CARTESIAN_POINT ( 'NONE',  ( 5.500000000000000000, 6.735557395310442023E-16, 5.000000000000000000 ) ) ;
#137 = PERSON_AND_ORGANIZATION_ROLE ( 'creator' ) ;
#138 = AXIS2_PLACEMENT_3D ( 'NONE', #91, #38, #198 ) ;
#139 = APPROVAL_ROLE ( '' ) ;
#140 = ORIENTED_EDGE ( 'NONE', *, *, #155, .T. ) ;
#141 = ORIENTED_EDGE ( 'NONE', *, *, #80, .T. ) ;
#142 = AXIS2_PLACEMENT_3D ( 'NONE', #168, #152, #73 ) ;
#143 = VERTEX_POINT ( 'NONE', #136 ) ;
#144 = CARTESIAN_POINT ( 'NONE',  ( 0.000000000000000000, 0.000000000000000000, 0.000000000000000000 ) ) ;
#145 = CC_DESIGN_PERSON_AND_ORGANIZATION_ASSIGNMENT ( #98, #137, ( #113 ) ) ;
#146 = FACE_OUTER_BOUND ( 'NONE', #192, .T. ) ;
#147 = CC_DESIGN_PERSON_AND_ORGANIZATION_ASSIGNMENT ( #177, #96, ( #113 ) ) ;
#148 = DIRECTION ( 'NONE',  ( -0.000000000000000000, -0.000000000000000000, -1.000000000000000000 ) ) ;
#149 = VECTOR ( 'NONE', #191, 1000.000000000000000 ) ;
#150 = CARTESIAN_POINT ( 'NONE',  ( -8.000000000000000000, 0.000000000000000000, 5.000000000000000000 ) ) ;
#151 = DATE_TIME_ROLE ( 'classification_date' ) ;
#152 = DIRECTION ( 'NONE',  ( 0.000000000000000000, 0.000000000000000000, 1.000000000000000000 ) ) ;
#153 = AXIS2_PLACEMENT_3D ( 'NONE', #240, #160, #219 ) ;
#154 = DIRECTION ( 'NONE',  ( 0.000000000000000000, 0.000000000000000000, 1.000000000000000000 ) ) ;
#155 = EDGE_CURVE ( 'NONE', #184, #143, #205, .T. ) ;
#156 = CALENDAR_DATE ( 2023, 12, 2 ) ;
#157 = CC_DESIGN_SECURITY_CLASSIFICATION ( #134, ( #113 ) ) ;
#158 = PERSON_AND_ORGANIZATION ( #29, #188 ) ;
#159 = VERTEX_POINT ( 'NONE', #232 ) ;
#160 = DIRECTION ( 'NONE',  ( 0.000000000000000000, 0.000000000000000000, 1.000000000000000000 ) ) ;
#161 = AXIS2_PLACEMENT_3D ( 'NONE', #76, #108, #3 ) ;
#162 = CARTESIAN_POINT ( 'NONE',  ( 0.000000000000000000, 0.000000000000000000, 160.0000000000000000 ) ) ;
#163 = EDGE_CURVE ( 'NONE', #230, #116, #85, .T. ) ;
#164 = DIRECTION ( 'NONE',  ( 1.000000000000000000, 0.000000000000000000, -0.000000000000000000 ) ) ;
#165 = CARTESIAN_POINT ( 'NONE',  ( 0.000000000000000000, 0.000000000000000000, 160.0000000000000000 ) ) ;
#166 = VECTOR ( 'NONE', #175, 1000.000000000000000 ) ;
#167 = DIRECTION ( 'NONE',  ( 1.000000000000000000, 0.000000000000000000, 0.000000000000000000 ) ) ;
#168 = CARTESIAN_POINT ( 'NONE',  ( 0.000000000000000000, 0.000000000000000000, 5.000000000000000000 ) ) ;
#169 = AXIS2_PLACEMENT_3D ( 'NONE', #144, #121, #208 ) ;
#170 = CYLINDRICAL_SURFACE ( 'NONE', #102, 8.000000000000000000 ) ;
#171 = LOCAL_TIME ( 12, 14, 56.00000000000000000, #110 ) ;
#172 = PRODUCT ( 'd9a2', 'd9a2', '', ( #61 ) ) ;
#173 = DIRECTION ( 'NONE',  ( -0.000000000000000000, -0.000000000000000000, -1.000000000000000000 ) ) ;
#174 = PERSON_AND_ORGANIZATION ( #29, #188 ) ;
#175 = DIRECTION ( 'NONE',  ( -0.000000000000000000, -0.000000000000000000, -1.000000000000000000 ) ) ;
#176 = AXIS2_PLACEMENT_3D ( 'NONE', #109, #135, #194 ) ;
#177 = PERSON_AND_ORGANIZATION ( #29, #188 ) ;
#178 = COORDINATED_UNIVERSAL_TIME_OFFSET ( 1, 0, .AHEAD. ) ;
#179 = DATE_AND_TIME ( #243, #115 ) ;
#180 = ORIENTED_EDGE ( 'NONE', *, *, #124, .F. ) ;
#181 = LOCAL_TIME ( 12, 14, 56.00000000000000000, #178 ) ;
#182 = APPROVAL_DATE_TIME ( #179, #248 ) ;
#183 = ORIENTED_EDGE ( 'NONE', *, *, #92, .F. ) ;
#184 = VERTEX_POINT ( 'NONE', #216 ) ;
#185 = ORIENTED_EDGE ( 'NONE', *, *, #23, .T. ) ;
#186 = APPLICATION_CONTEXT ( 'configuration controlled 3d designs of mechanical parts and assemblies' ) ;
#187 = EDGE_CURVE ( 'NONE', #32, #159, #123, .T. ) ;
#188 = ORGANIZATION ( 'NEURÈENÝ', 'NEURÈENÝ', '' ) ;
#189 = DIRECTION ( 'NONE',  ( 0.000000000000000000, 0.000000000000000000, 1.000000000000000000 ) ) ;
#190 = CARTESIAN_POINT ( 'NONE',  ( 0.000000000000000000, 0.000000000000000000, 0.000000000000000000 ) ) ;
#191 = DIRECTION ( 'NONE',  ( -0.000000000000000000, -0.000000000000000000, -1.000000000000000000 ) ) ;
#192 = EDGE_LOOP ( 'NONE', ( #242, #42 ) ) ;
#193 = FACE_BOUND ( 'NONE', #7, .T. ) ;
#194 = DIRECTION ( 'NONE',  ( 1.000000000000000000, 0.000000000000000000, 0.000000000000000000 ) ) ;
#195 = COORDINATED_UNIVERSAL_TIME_OFFSET ( 1, 0, .AHEAD. ) ;
#196 = FACE_OUTER_BOUND ( 'NONE', #27, .T. ) ;
#197 =( NAMED_UNIT ( * ) SI_UNIT ( $, .STERADIAN. ) SOLID_ANGLE_UNIT ( ) );
#198 = DIRECTION ( 'NONE',  ( 1.000000000000000000, 0.000000000000000000, 0.000000000000000000 ) ) ;
#199 = PERSON_AND_ORGANIZATION ( #29, #188 ) ;
#200 = LOCAL_TIME ( 12, 14, 56.00000000000000000, #195 ) ;
#201 = EDGE_LOOP ( 'NONE', ( #203, #8, #120, #46 ) ) ;
#202 = APPROVAL_STATUS ( 'not_yet_approved' ) ;
#203 = ORIENTED_EDGE ( 'NONE', *, *, #163, .F. ) ;
#204 = APPROVAL_DATE_TIME ( #41, #71 ) ;
#205 = CIRCLE ( 'NONE', #12, 5.500000000000000000 ) ;
#206 = CC_DESIGN_APPROVAL ( #71, ( #113 ) ) ;
#207 = ORIENTED_EDGE ( 'NONE', *, *, #47, .F. ) ;
#208 = DIRECTION ( 'NONE',  ( 1.000000000000000000, 0.000000000000000000, 0.000000000000000000 ) ) ;
#209 = EDGE_CURVE ( 'NONE', #143, #184, #33, .T. ) ;
#210 = LINE ( 'NONE', #69, #215 ) ;
#211 = LINE ( 'NONE', #84, #149 ) ;
#212 = AXIS2_PLACEMENT_3D ( 'NONE', #14, #53, #111 ) ;
#213 = CYLINDRICAL_SURFACE ( 'NONE', #249, 8.000000000000000000 ) ;
#214 = CALENDAR_DATE ( 2023, 12, 2 ) ;
#215 = VECTOR ( 'NONE', #148, 1000.000000000000000 ) ;
#216 = CARTESIAN_POINT ( 'NONE',  ( -5.500000000000000000, 0.000000000000000000, 5.000000000000000000 ) ) ;
#217 = PERSON_AND_ORGANIZATION ( #29, #188 ) ;
#218 = VECTOR ( 'NONE', #54, 1000.000000000000000 ) ;
#219 = DIRECTION ( 'NONE',  ( 1.000000000000000000, 0.000000000000000000, 0.000000000000000000 ) ) ;
#220 = APPROVAL ( #235, 'NEURÈENÝ' ) ;
#221 = CALENDAR_DATE ( 2023, 12, 2 ) ;
#222 = PERSON_AND_ORGANIZATION ( #29, #188 ) ;
#223 = ORIENTED_EDGE ( 'NONE', *, *, #64, .T. ) ;
#224 = ADVANCED_FACE ( 'NONE', ( #59 ), #170, .T. ) ;
#225 = DIRECTION ( 'NONE',  ( -1.000000000000000000, 0.000000000000000000, 0.000000000000000000 ) ) ;
#226 = AXIS2_PLACEMENT_3D ( 'NONE', #165, #30, #225 ) ;
#227 = DIRECTION ( 'NONE',  ( 0.000000000000000000, 0.000000000000000000, 1.000000000000000000 ) ) ;
#228 = PRODUCT_RELATED_PRODUCT_CATEGORY ( 'detail', '', ( #172 ) ) ;
#229 = PLANE ( 'NONE',  #24 ) ;
#230 = VERTEX_POINT ( 'NONE', #90 ) ;
#231 = ADVANCED_FACE ( 'NONE', ( #196 ), #213, .T. ) ;
#232 = CARTESIAN_POINT ( 'NONE',  ( -8.000000000000000000, 0.000000000000000000, 0.000000000000000000 ) ) ;
#233 = LOCAL_TIME ( 12, 14, 56.00000000000000000, #60 ) ;
#234 =( LENGTH_UNIT ( ) NAMED_UNIT ( * ) SI_UNIT ( .MILLI., .METRE. ) );
#235 = APPROVAL_STATUS ( 'not_yet_approved' ) ;
#236 =( NAMED_UNIT ( * ) PLANE_ANGLE_UNIT ( ) SI_UNIT ( $, .RADIAN. ) );
#237 = DIRECTION ( 'NONE',  ( -1.000000000000000000, 0.000000000000000000, 0.000000000000000000 ) ) ;
#238 = PERSON_AND_ORGANIZATION_ROLE ( 'classification_officer' ) ;
#239 = CARTESIAN_POINT ( 'NONE',  ( 0.000000000000000000, 0.000000000000000000, 160.0000000000000000 ) ) ;
#240 = CARTESIAN_POINT ( 'NONE',  ( 0.000000000000000000, 0.000000000000000000, 0.000000000000000000 ) ) ;
#241 = ADVANCED_FACE ( 'NONE', ( #193, #13 ), #132, .T. ) ;
#242 = ORIENTED_EDGE ( 'NONE', *, *, #80, .F. ) ;
#243 = CALENDAR_DATE ( 2023, 12, 2 ) ;
#244 = ORIENTED_EDGE ( 'NONE', *, *, #47, .T. ) ;
#245 = ORIENTED_EDGE ( 'NONE', *, *, #251, .F. ) ;
#246 = MANIFOLD_SOLID_BREP ( 'Pøidat vysunutím3', #95 ) ;
#247 = ORIENTED_EDGE ( 'NONE', *, *, #124, .T. ) ;
#248 = APPROVAL ( #202, 'NEURÈENÝ' ) ;
#249 = AXIS2_PLACEMENT_3D ( 'NONE', #72, #56, #34 ) ;
#250 = CYLINDRICAL_SURFACE ( 'NONE', #226, 5.500000000000000000 ) ;
#251 = EDGE_CURVE ( 'NONE', #81, #22, #97, .T. ) ;
#252 = CARTESIAN_POINT ( 'NONE',  ( 5.500000000000000000, 6.735557395310442023E-16, 160.0000000000000000 ) ) ;
#253 = SHAPE_DEFINITION_REPRESENTATION ( #131, #107 ) ;
#254 = CALENDAR_DATE ( 2023, 12, 2 ) ;
#255 = CARTESIAN_POINT ( 'NONE',  ( 0.000000000000000000, 0.000000000000000000, 5.000000000000000000 ) ) ;
ENDSEC;
END-ISO-10303-21;
