ISO-10303-21;
HEADER;
FILE_DESCRIPTION (( 'STEP AP203' ),
    '1' );
FILE_NAME ('7529.STEP',
    '2023-02-12T12:40:35',
    ( '' ),
    ( '' ),
    'SwSTEP 2.0',
    'SolidWorks 2019',
    '' );
FILE_SCHEMA (( 'CONFIG_CONTROL_DESIGN' ));
ENDSEC;

DATA;
#1 = CARTESIAN_POINT ( 'NONE',  ( 1.750000000000000000, 2.143131898507868297E-16, 3.000000000000000000 ) ) ;
#2 = ADVANCED_FACE ( 'NONE', ( #27 ), #104, .T. ) ;
#3 = CARTESIAN_POINT ( 'NONE',  ( 0.000000000000000000, 0.000000000000000000, 3.000000000000000000 ) ) ;
#4 = PERSON_AND_ORGANIZATION_ROLE ( 'creator' ) ;
#5 = DIRECTION ( 'NONE',  ( 0.000000000000000000, 0.000000000000000000, 1.000000000000000000 ) ) ;
#6 = VERTEX_POINT ( 'NONE', #68 ) ;
#7 = ORIENTED_EDGE ( 'NONE', *, *, #30, .T. ) ;
#8 = AXIS2_PLACEMENT_3D ( 'NONE', #138, #157, #238 ) ;
#9 = ORIENTED_EDGE ( 'NONE', *, *, #236, .T. ) ;
#10 = AXIS2_PLACEMENT_3D ( 'NONE', #175, #5, #97 ) ;
#11 = FACE_OUTER_BOUND ( 'NONE', #219, .T. ) ;
#12 = FACE_OUTER_BOUND ( 'NONE', #162, .T. ) ;
#13 = LOCAL_TIME ( 13, 40, 35.00000000000000000, #16 ) ;
#14 = PLANE ( 'NONE',  #251 ) ;
#15 = APPROVAL_PERSON_ORGANIZATION ( #209, #254, #171 ) ;
#16 = COORDINATED_UNIVERSAL_TIME_OFFSET ( 1, 0, .AHEAD. ) ;
#17 = APPROVAL_STATUS ( 'not_yet_approved' ) ;
#18 = AXIS2_PLACEMENT_3D ( 'NONE', #247, #107, #197 ) ;
#19 = APPLICATION_CONTEXT ( 'configuration controlled 3d designs of mechanical parts and assemblies' ) ;
#20 = COORDINATED_UNIVERSAL_TIME_OFFSET ( 1, 0, .AHEAD. ) ;
#21 = DIRECTION ( 'NONE',  ( -1.000000000000000000, 0.000000000000000000, 0.000000000000000000 ) ) ;
#22 = CARTESIAN_POINT ( 'NONE',  ( -3.500000000000000444, 0.000000000000000000, 3.000000000000000000 ) ) ;
#23 = ORIENTED_EDGE ( 'NONE', *, *, #206, .F. ) ;
#24 = PERSON_AND_ORGANIZATION ( #201, #233 ) ;
#25 = DIRECTION ( 'NONE',  ( 0.000000000000000000, 0.000000000000000000, 1.000000000000000000 ) ) ;
#26 = ORIENTED_EDGE ( 'NONE', *, *, #93, .F. ) ;
#27 = FACE_OUTER_BOUND ( 'NONE', #92, .T. ) ;
#28 = DIRECTION ( 'NONE',  ( -0.000000000000000000, -0.000000000000000000, -1.000000000000000000 ) ) ;
#29 = ORIENTED_EDGE ( 'NONE', *, *, #216, .F. ) ;
#30 = EDGE_CURVE ( 'NONE', #6, #105, #137, .T. ) ;
#31 =( LENGTH_UNIT ( ) NAMED_UNIT ( * ) SI_UNIT ( .MILLI., .METRE. ) );
#32 = PRODUCT_DEFINITION_FORMATION_WITH_SPECIFIED_SOURCE ( 'LIBOVOLNÝ', '', #159, .NOT_KNOWN. ) ;
#33 = FACE_OUTER_BOUND ( 'NONE', #246, .T. ) ;
#34 = CALENDAR_DATE ( 2023, 12, 2 ) ;
#35 = DIRECTION ( 'NONE',  ( 0.000000000000000000, 0.000000000000000000, 1.000000000000000000 ) ) ;
#36 = PERSON_AND_ORGANIZATION_ROLE ( 'creator' ) ;
#37 = EDGE_CURVE ( 'NONE', #122, #88, #128, .T. ) ;
#38 = PERSON_AND_ORGANIZATION_ROLE ( 'design_owner' ) ;
#39 = APPROVAL_DATE_TIME ( #85, #55 ) ;
#40 = DIRECTION ( 'NONE',  ( -0.000000000000000000, -0.000000000000000000, -1.000000000000000000 ) ) ;
#41 = LINE ( 'NONE', #214, #203 ) ;
#42 = VERTEX_POINT ( 'NONE', #180 ) ;
#43 = ORIENTED_EDGE ( 'NONE', *, *, #216, .T. ) ;
#44 = ADVANCED_FACE ( 'NONE', ( #12 ), #14, .T. ) ;
#45 = ORIENTED_EDGE ( 'NONE', *, *, #236, .F. ) ;
#46 = ORIENTED_EDGE ( 'NONE', *, *, #133, .F. ) ;
#47 = DESIGN_CONTEXT ( 'detailed design', #19, 'design' ) ;
#48 = DIRECTION ( 'NONE',  ( 0.000000000000000000, 0.000000000000000000, 1.000000000000000000 ) ) ;
#49 = DIRECTION ( 'NONE',  ( 1.000000000000000000, 0.000000000000000000, 0.000000000000000000 ) ) ;
#50 = LOCAL_TIME ( 13, 40, 35.00000000000000000, #20 ) ;
#51 = DIRECTION ( 'NONE',  ( 1.000000000000000000, 0.000000000000000000, 0.000000000000000000 ) ) ;
#52 = CIRCLE ( 'NONE', #189, 1.750000000000000000 ) ;
#53 = DIRECTION ( 'NONE',  ( 1.000000000000000000, 0.000000000000000000, -0.000000000000000000 ) ) ;
#54 = APPROVAL_STATUS ( 'not_yet_approved' ) ;
#55 = APPROVAL ( #54, 'NEURÈENÝ' ) ;
#56 = LOCAL_TIME ( 13, 40, 35.00000000000000000, #101 ) ;
#57 = DATE_AND_TIME ( #34, #163 ) ;
#58 = CC_DESIGN_APPROVAL ( #254, ( #109 ) ) ;
#59 = CARTESIAN_POINT ( 'NONE',  ( 3.500000000000000444, 4.286263797015737088E-16, 0.000000000000000000 ) ) ;
#60 = APPROVAL_DATE_TIME ( #237, #100 ) ;
#61 = CARTESIAN_POINT ( 'NONE',  ( 1.750000000000000000, 2.143131898507868297E-16, 630.0000000000000000 ) ) ;
#62 = PERSON_AND_ORGANIZATION ( #201, #233 ) ;
#63 = DIRECTION ( 'NONE',  ( 1.000000000000000000, 0.000000000000000000, 0.000000000000000000 ) ) ;
#64 = ORIENTED_EDGE ( 'NONE', *, *, #239, .T. ) ;
#65 = EDGE_CURVE ( 'NONE', #42, #99, #89, .T. ) ;
#66 =( NAMED_UNIT ( * ) PLANE_ANGLE_UNIT ( ) SI_UNIT ( $, .RADIAN. ) );
#67 = AXIS2_PLACEMENT_3D ( 'NONE', #3, #25, #136 ) ;
#68 = CARTESIAN_POINT ( 'NONE',  ( 3.500000000000000444, 4.286263797015737088E-16, 3.000000000000000000 ) ) ;
#69 = CARTESIAN_POINT ( 'NONE',  ( 0.000000000000000000, 0.000000000000000000, 3.000000000000000000 ) ) ;
#70 = LOCAL_TIME ( 13, 40, 35.00000000000000000, #132 ) ;
#71 = DIRECTION ( 'NONE',  ( 0.000000000000000000, 0.000000000000000000, 1.000000000000000000 ) ) ;
#72 = CC_DESIGN_PERSON_AND_ORGANIZATION_ASSIGNMENT ( #231, #38, ( #159 ) ) ;
#73 = CIRCLE ( 'NONE', #67, 3.500000000000000444 ) ;
#74 = CIRCLE ( 'NONE', #200, 3.500000000000000444 ) ;
#75 = ADVANCED_FACE ( 'NONE', ( #204, #33 ), #111, .T. ) ;
#76 = DATE_AND_TIME ( #94, #13 ) ;
#77 = CARTESIAN_POINT ( 'NONE',  ( -1.750000000000000000, 0.000000000000000000, 3.000000000000000000 ) ) ;
#78 = DATE_TIME_ROLE ( 'creation_date' ) ;
#79 = CARTESIAN_POINT ( 'NONE',  ( 0.000000000000000000, 0.000000000000000000, 3.000000000000000000 ) ) ;
#80 = ADVANCED_FACE ( 'NONE', ( #208 ), #115, .F. ) ;
#81 = CYLINDRICAL_SURFACE ( 'NONE', #8, 1.750000000000000000 ) ;
#82 = ORIENTED_EDGE ( 'NONE', *, *, #185, .F. ) ;
#83 = SHAPE_DEFINITION_REPRESENTATION ( #218, #217 ) ;
#84 = DIRECTION ( 'NONE',  ( -0.000000000000000000, -0.000000000000000000, -1.000000000000000000 ) ) ;
#85 = DATE_AND_TIME ( #211, #70 ) ;
#86 = FACE_OUTER_BOUND ( 'NONE', #196, .T. ) ;
#87 = ORIENTED_EDGE ( 'NONE', *, *, #37, .F. ) ;
#88 = VERTEX_POINT ( 'NONE', #77 ) ;
#89 = CIRCLE ( 'NONE', #165, 1.750000000000000000 ) ;
#90 = CARTESIAN_POINT ( 'NONE',  ( 3.500000000000000444, 4.286263797015737088E-16, 3.000000000000000000 ) ) ;
#91 = DIRECTION ( 'NONE',  ( 0.000000000000000000, 0.000000000000000000, 1.000000000000000000 ) ) ;
#92 = EDGE_LOOP ( 'NONE', ( #158, #46, #177, #9 ) ) ;
#93 = EDGE_CURVE ( 'NONE', #88, #122, #52, .T. ) ;
#94 = CALENDAR_DATE ( 2023, 12, 2 ) ;
#95 = MECHANICAL_CONTEXT ( 'NONE', #249, 'mechanical' ) ;
#96 = CIRCLE ( 'NONE', #223, 1.750000000000000000 ) ;
#97 = DIRECTION ( 'NONE',  ( 1.000000000000000000, 0.000000000000000000, 0.000000000000000000 ) ) ;
#98 = DIRECTION ( 'NONE',  ( -0.000000000000000000, -0.000000000000000000, -1.000000000000000000 ) ) ;
#99 = VERTEX_POINT ( 'NONE', #61 ) ;
#100 = APPROVAL ( #156, 'NEURÈENÝ' ) ;
#101 = COORDINATED_UNIVERSAL_TIME_OFFSET ( 1, 0, .AHEAD. ) ;
#102 = CARTESIAN_POINT ( 'NONE',  ( 0.000000000000000000, 0.000000000000000000, 630.0000000000000000 ) ) ;
#103 = ORIENTED_EDGE ( 'NONE', *, *, #206, .T. ) ;
#104 = CYLINDRICAL_SURFACE ( 'NONE', #18, 3.500000000000000444 ) ;
#105 = VERTEX_POINT ( 'NONE', #59 ) ;
#106 = VECTOR ( 'NONE', #166, 1000.000000000000000 ) ;
#107 = DIRECTION ( 'NONE',  ( -0.000000000000000000, -0.000000000000000000, -1.000000000000000000 ) ) ;
#108 = PRODUCT_RELATED_PRODUCT_CATEGORY ( 'detail', '', ( #159 ) ) ;
#109 = PRODUCT_DEFINITION ( 'NEZNÁMÝ', '', #32, #47 ) ;
#110 = DIRECTION ( 'NONE',  ( 0.000000000000000000, 0.000000000000000000, 1.000000000000000000 ) ) ;
#111 = PLANE ( 'NONE',  #227 ) ;
#112 = COORDINATED_UNIVERSAL_TIME_OFFSET ( 1, 0, .AHEAD. ) ;
#113 = CIRCLE ( 'NONE', #10, 3.500000000000000444 ) ;
#114 = APPROVAL_ROLE ( '' ) ;
#115 = PLANE ( 'NONE',  #135 ) ;
#116 = CYLINDRICAL_SURFACE ( 'NONE', #178, 3.500000000000000444 ) ;
#117 = PERSON_AND_ORGANIZATION ( #201, #233 ) ;
#118 = LINE ( 'NONE', #22, #228 ) ;
#119 = ORIENTED_EDGE ( 'NONE', *, *, #239, .F. ) ;
#120 = CC_DESIGN_APPROVAL ( #100, ( #141 ) ) ;
#121 = ORIENTED_EDGE ( 'NONE', *, *, #152, .F. ) ;
#122 = VERTEX_POINT ( 'NONE', #1 ) ;
#123 = CARTESIAN_POINT ( 'NONE',  ( 0.000000000000000000, 0.000000000000000000, 630.0000000000000000 ) ) ;
#124 = MANIFOLD_SOLID_BREP ( 'Pøidat vysunutím3', #202 ) ;
#125 = DIRECTION ( 'NONE',  ( 1.000000000000000000, 0.000000000000000000, 0.000000000000000000 ) ) ;
#126 = DIRECTION ( 'NONE',  ( 1.000000000000000000, 0.000000000000000000, 0.000000000000000000 ) ) ;
#127 = ADVANCED_FACE ( 'NONE', ( #194 ), #116, .T. ) ;
#128 = CIRCLE ( 'NONE', #212, 1.750000000000000000 ) ;
#129 = ADVANCED_FACE ( 'NONE', ( #86 ), #81, .T. ) ;
#130 = CARTESIAN_POINT ( 'NONE',  ( 0.000000000000000000, 0.000000000000000000, 0.000000000000000000 ) ) ;
#131 = CIRCLE ( 'NONE', #169, 3.500000000000000444 ) ;
#132 = COORDINATED_UNIVERSAL_TIME_OFFSET ( 1, 0, .AHEAD. ) ;
#133 = EDGE_CURVE ( 'NONE', #221, #6, #73, .T. ) ;
#134 = APPROVAL_ROLE ( '' ) ;
#135 = AXIS2_PLACEMENT_3D ( 'NONE', #255, #35, #234 ) ;
#136 = DIRECTION ( 'NONE',  ( 1.000000000000000000, 0.000000000000000000, 0.000000000000000000 ) ) ;
#137 = LINE ( 'NONE', #90, #106 ) ;
#138 = CARTESIAN_POINT ( 'NONE',  ( 0.000000000000000000, 0.000000000000000000, 630.0000000000000000 ) ) ;
#139 = VERTEX_POINT ( 'NONE', #240 ) ;
#140 = ORIENTED_EDGE ( 'NONE', *, *, #133, .T. ) ;
#141 = SECURITY_CLASSIFICATION ( '', '', #195 ) ;
#142 = CARTESIAN_POINT ( 'NONE',  ( -3.500000000000000444, 0.000000000000000000, 3.000000000000000000 ) ) ;
#143 = CARTESIAN_POINT ( 'NONE',  ( 0.000000000000000000, 0.000000000000000000, 0.000000000000000000 ) ) ;
#144 = EDGE_CURVE ( 'NONE', #42, #88, #243, .T. ) ;
#145 = CARTESIAN_POINT ( 'NONE',  ( 0.000000000000000000, 0.000000000000000000, 630.0000000000000000 ) ) ;
#146 = DIRECTION ( 'NONE',  ( -1.000000000000000000, 0.000000000000000000, 0.000000000000000000 ) ) ;
#147 = CARTESIAN_POINT ( 'NONE',  ( 0.000000000000000000, 0.000000000000000000, 3.000000000000000000 ) ) ;
#148 = DIRECTION ( 'NONE',  ( 0.000000000000000000, 0.000000000000000000, 1.000000000000000000 ) ) ;
#149 = APPROVAL_DATE_TIME ( #57, #254 ) ;
#150 = APPROVAL_PERSON_ORGANIZATION ( #170, #55, #134 ) ;
#151 = PERSON_AND_ORGANIZATION_ROLE ( 'design_supplier' ) ;
#152 = EDGE_CURVE ( 'NONE', #99, #122, #41, .T. ) ;
#153 = CALENDAR_DATE ( 2023, 12, 2 ) ;
#154 = CC_DESIGN_DATE_AND_TIME_ASSIGNMENT ( #160, #242, ( #141 ) ) ;
#155 = DIRECTION ( 'NONE',  ( 1.000000000000000000, 0.000000000000000000, 0.000000000000000000 ) ) ;
#156 = APPROVAL_STATUS ( 'not_yet_approved' ) ;
#157 = DIRECTION ( 'NONE',  ( -0.000000000000000000, -0.000000000000000000, -1.000000000000000000 ) ) ;
#158 = ORIENTED_EDGE ( 'NONE', *, *, #30, .F. ) ;
#159 = PRODUCT ( '7529', '7529', '', ( #95 ) ) ;
#160 = DATE_AND_TIME ( #210, #56 ) ;
#161 = CARTESIAN_POINT ( 'NONE',  ( -1.750000000000000000, 0.000000000000000000, 630.0000000000000000 ) ) ;
#162 = EDGE_LOOP ( 'NONE', ( #248, #103 ) ) ;
#163 = LOCAL_TIME ( 13, 40, 35.00000000000000000, #112 ) ;
#164 = CC_DESIGN_DATE_AND_TIME_ASSIGNMENT ( #76, #78, ( #109 ) ) ;
#165 = AXIS2_PLACEMENT_3D ( 'NONE', #167, #250, #51 ) ;
#166 = DIRECTION ( 'NONE',  ( -0.000000000000000000, -0.000000000000000000, -1.000000000000000000 ) ) ;
#167 = CARTESIAN_POINT ( 'NONE',  ( 0.000000000000000000, 0.000000000000000000, 630.0000000000000000 ) ) ;
#168 = APPROVAL_PERSON_ORGANIZATION ( #62, #100, #114 ) ;
#169 = AXIS2_PLACEMENT_3D ( 'NONE', #224, #71, #49 ) ;
#170 = PERSON_AND_ORGANIZATION ( #201, #233 ) ;
#171 = APPROVAL_ROLE ( '' ) ;
#172 = DIRECTION ( 'NONE',  ( 0.000000000000000000, 0.000000000000000000, 1.000000000000000000 ) ) ;
#173 = DIRECTION ( 'NONE',  ( 0.000000000000000000, 0.000000000000000000, 1.000000000000000000 ) ) ;
#174 = ORIENTED_EDGE ( 'NONE', *, *, #152, .T. ) ;
#175 = CARTESIAN_POINT ( 'NONE',  ( 0.000000000000000000, 0.000000000000000000, 3.000000000000000000 ) ) ;
#176 = CC_DESIGN_PERSON_AND_ORGANIZATION_ASSIGNMENT ( #24, #235, ( #141 ) ) ;
#177 = ORIENTED_EDGE ( 'NONE', *, *, #185, .T. ) ;
#178 = AXIS2_PLACEMENT_3D ( 'NONE', #191, #84, #21 ) ;
#179 = UNCERTAINTY_MEASURE_WITH_UNIT (LENGTH_MEASURE( 1.000000000000000082E-05 ), #31, 'distance_accuracy_value', 'NONE');
#180 = CARTESIAN_POINT ( 'NONE',  ( -1.750000000000000000, 0.000000000000000000, 630.0000000000000000 ) ) ;
#181 = CC_DESIGN_PERSON_AND_ORGANIZATION_ASSIGNMENT ( #117, #36, ( #32 ) ) ;
#182 = AXIS2_PLACEMENT_3D ( 'NONE', #130, #148, #252 ) ;
#183 = CC_DESIGN_PERSON_AND_ORGANIZATION_ASSIGNMENT ( #193, #151, ( #32 ) ) ;
#184 = PERSON_AND_ORGANIZATION ( #201, #233 ) ;
#185 = EDGE_CURVE ( 'NONE', #221, #139, #118, .T. ) ;
#186 = APPLICATION_PROTOCOL_DEFINITION ( 'international standard', 'config_control_design', 1994, #19 ) ;
#187 = CC_DESIGN_SECURITY_CLASSIFICATION ( #141, ( #32 ) ) ;
#188 = VECTOR ( 'NONE', #215, 1000.000000000000000 ) ;
#189 = AXIS2_PLACEMENT_3D ( 'NONE', #79, #172, #155 ) ;
#190 = EDGE_LOOP ( 'NONE', ( #29, #7, #64, #82 ) ) ;
#191 = CARTESIAN_POINT ( 'NONE',  ( 0.000000000000000000, 0.000000000000000000, 3.000000000000000000 ) ) ;
#192 = EDGE_LOOP ( 'NONE', ( #45, #119 ) ) ;
#193 = PERSON_AND_ORGANIZATION ( #201, #233 ) ;
#194 = FACE_OUTER_BOUND ( 'NONE', #190, .T. ) ;
#195 = SECURITY_CLASSIFICATION_LEVEL ( 'unclassified' ) ;
#196 = EDGE_LOOP ( 'NONE', ( #121, #241, #222, #229 ) ) ;
#197 = DIRECTION ( 'NONE',  ( -1.000000000000000000, 0.000000000000000000, 0.000000000000000000 ) ) ;
#198 = CC_DESIGN_PERSON_AND_ORGANIZATION_ASSIGNMENT ( #184, #4, ( #109 ) ) ;
#199 = ORIENTED_EDGE ( 'NONE', *, *, #144, .F. ) ;
#200 = AXIS2_PLACEMENT_3D ( 'NONE', #143, #91, #126 ) ;
#201 = PERSON ( 'NEURÈENÝ', 'NEURÈENÝ', 'NEURÈENÝ', ('NEURÈENÝ'), ('NEURÈENÝ'), ('NEURÈENÝ') ) ;
#202 = CLOSED_SHELL ( 'NONE', ( #226, #127, #2, #75, #80, #129, #44 ) ) ;
#203 = VECTOR ( 'NONE', #40, 1000.000000000000000 ) ;
#204 = FACE_BOUND ( 'NONE', #220, .T. ) ;
#205 = APPLICATION_PROTOCOL_DEFINITION ( 'international standard', 'config_control_design', 1994, #249 ) ;
#206 = EDGE_CURVE ( 'NONE', #99, #42, #96, .T. ) ;
#207 =( GEOMETRIC_REPRESENTATION_CONTEXT ( 3 ) GLOBAL_UNCERTAINTY_ASSIGNED_CONTEXT ( ( #179 ) ) GLOBAL_UNIT_ASSIGNED_CONTEXT ( ( #31, #66, #232 ) ) REPRESENTATION_CONTEXT ( 'NONE', 'WORKASPACE' ) );
#208 = FACE_OUTER_BOUND ( 'NONE', #192, .T. ) ;
#209 = PERSON_AND_ORGANIZATION ( #201, #233 ) ;
#210 = CALENDAR_DATE ( 2023, 12, 2 ) ;
#211 = CALENDAR_DATE ( 2023, 12, 2 ) ;
#212 = AXIS2_PLACEMENT_3D ( 'NONE', #69, #48, #125 ) ;
#213 = AXIS2_PLACEMENT_3D ( 'NONE', #123, #28, #146 ) ;
#214 = CARTESIAN_POINT ( 'NONE',  ( 1.750000000000000000, 2.143131898507868297E-16, 630.0000000000000000 ) ) ;
#215 = DIRECTION ( 'NONE',  ( -0.000000000000000000, -0.000000000000000000, -1.000000000000000000 ) ) ;
#216 = EDGE_CURVE ( 'NONE', #6, #221, #113, .T. ) ;
#217 = ADVANCED_BREP_SHAPE_REPRESENTATION ( '7529', ( #124, #182 ), #207 ) ;
#218 = PRODUCT_DEFINITION_SHAPE ( 'NONE', 'NONE',  #109 ) ;
#219 = EDGE_LOOP ( 'NONE', ( #23, #174, #244, #199 ) ) ;
#220 = EDGE_LOOP ( 'NONE', ( #26, #87 ) ) ;
#221 = VERTEX_POINT ( 'NONE', #142 ) ;
#222 = ORIENTED_EDGE ( 'NONE', *, *, #144, .T. ) ;
#223 = AXIS2_PLACEMENT_3D ( 'NONE', #102, #173, #63 ) ;
#224 = CARTESIAN_POINT ( 'NONE',  ( 0.000000000000000000, 0.000000000000000000, 0.000000000000000000 ) ) ;
#225 = DIRECTION ( 'NONE',  ( 1.000000000000000000, 0.000000000000000000, -0.000000000000000000 ) ) ;
#226 = ADVANCED_FACE ( 'NONE', ( #11 ), #245, .T. ) ;
#227 = AXIS2_PLACEMENT_3D ( 'NONE', #147, #230, #53 ) ;
#228 = VECTOR ( 'NONE', #98, 1000.000000000000000 ) ;
#229 = ORIENTED_EDGE ( 'NONE', *, *, #93, .T. ) ;
#230 = DIRECTION ( 'NONE',  ( 0.000000000000000000, 0.000000000000000000, 1.000000000000000000 ) ) ;
#231 = PERSON_AND_ORGANIZATION ( #201, #233 ) ;
#232 =( NAMED_UNIT ( * ) SI_UNIT ( $, .STERADIAN. ) SOLID_ANGLE_UNIT ( ) );
#233 = ORGANIZATION ( 'NEURÈENÝ', 'NEURÈENÝ', '' ) ;
#234 = DIRECTION ( 'NONE',  ( 1.000000000000000000, 0.000000000000000000, -0.000000000000000000 ) ) ;
#235 = PERSON_AND_ORGANIZATION_ROLE ( 'classification_officer' ) ;
#236 = EDGE_CURVE ( 'NONE', #139, #105, #74, .T. ) ;
#237 = DATE_AND_TIME ( #153, #50 ) ;
#238 = DIRECTION ( 'NONE',  ( -1.000000000000000000, 0.000000000000000000, 0.000000000000000000 ) ) ;
#239 = EDGE_CURVE ( 'NONE', #105, #139, #131, .T. ) ;
#240 = CARTESIAN_POINT ( 'NONE',  ( -3.500000000000000444, 0.000000000000000000, 0.000000000000000000 ) ) ;
#241 = ORIENTED_EDGE ( 'NONE', *, *, #65, .F. ) ;
#242 = DATE_TIME_ROLE ( 'classification_date' ) ;
#243 = LINE ( 'NONE', #161, #188 ) ;
#244 = ORIENTED_EDGE ( 'NONE', *, *, #37, .T. ) ;
#245 = CYLINDRICAL_SURFACE ( 'NONE', #213, 1.750000000000000000 ) ;
#246 = EDGE_LOOP ( 'NONE', ( #140, #43 ) ) ;
#247 = CARTESIAN_POINT ( 'NONE',  ( 0.000000000000000000, 0.000000000000000000, 3.000000000000000000 ) ) ;
#248 = ORIENTED_EDGE ( 'NONE', *, *, #65, .T. ) ;
#249 = APPLICATION_CONTEXT ( 'configuration controlled 3d designs of mechanical parts and assemblies' ) ;
#250 = DIRECTION ( 'NONE',  ( 0.000000000000000000, 0.000000000000000000, 1.000000000000000000 ) ) ;
#251 = AXIS2_PLACEMENT_3D ( 'NONE', #145, #110, #225 ) ;
#252 = DIRECTION ( 'NONE',  ( 1.000000000000000000, 0.000000000000000000, 0.000000000000000000 ) ) ;
#253 = CC_DESIGN_APPROVAL ( #55, ( #32 ) ) ;
#254 = APPROVAL ( #17, 'NEURÈENÝ' ) ;
#255 = CARTESIAN_POINT ( 'NONE',  ( 0.000000000000000000, 0.000000000000000000, 0.000000000000000000 ) ) ;
ENDSEC;
END-ISO-10303-21;
