ISO-10303-21;
HEADER;
FILE_DESCRIPTION (( 'STEP AP203' ),
    '1' );
FILE_NAME ('fb84.STEP',
    '2023-02-12T11:27:54',
    ( '' ),
    ( '' ),
    'SwSTEP 2.0',
    'SolidWorks 2019',
    '' );
FILE_SCHEMA (( 'CONFIG_CONTROL_DESIGN' ));
ENDSEC;

DATA;
#1 = PERSON_AND_ORGANIZATION ( #115, #205 ) ;
#2 = PERSON_AND_ORGANIZATION_ROLE ( 'creator' ) ;
#3 = ADVANCED_FACE ( 'NONE', ( #157 ), #38, .T. ) ;
#4 = SECURITY_CLASSIFICATION_LEVEL ( 'unclassified' ) ;
#5 = AXIS2_PLACEMENT_3D ( 'NONE', #71, #58, #134 ) ;
#6 = DIRECTION ( 'NONE',  ( 1.000000000000000000, 0.000000000000000000, 0.000000000000000000 ) ) ;
#7 = DESIGN_CONTEXT ( 'detailed design', #88, 'design' ) ;
#8 = APPLICATION_CONTEXT ( 'configuration controlled 3d designs of mechanical parts and assemblies' ) ;
#9 = SECURITY_CLASSIFICATION ( '', '', #4 ) ;
#10 = CARTESIAN_POINT ( 'NONE',  ( 5.000000000000000888, 6.123233995736767268E-16, 160.0000000000000000 ) ) ;
#11 = EDGE_CURVE ( 'NONE', #78, #16, #172, .T. ) ;
#12 = CIRCLE ( 'NONE', #35, 8.000000000000000000 ) ;
#13 = CIRCLE ( 'NONE', #51, 5.000000000000000888 ) ;
#14 = ORIENTED_EDGE ( 'NONE', *, *, #44, .F. ) ;
#15 = ADVANCED_BREP_SHAPE_REPRESENTATION ( 'fb84', ( #202, #243 ), #67 ) ;
#16 = VERTEX_POINT ( 'NONE', #251 ) ;
#17 = DIRECTION ( 'NONE',  ( -0.000000000000000000, -0.000000000000000000, -1.000000000000000000 ) ) ;
#18 = CARTESIAN_POINT ( 'NONE',  ( -8.000000000000000000, 0.000000000000000000, 5.000000000000000000 ) ) ;
#19 = CALENDAR_DATE ( 2023, 12, 2 ) ;
#20 = DATE_AND_TIME ( #144, #99 ) ;
#21 = VERTEX_POINT ( 'NONE', #108 ) ;
#22 = DIRECTION ( 'NONE',  ( -0.000000000000000000, -0.000000000000000000, -1.000000000000000000 ) ) ;
#23 = DIRECTION ( 'NONE',  ( -1.000000000000000000, 0.000000000000000000, 0.000000000000000000 ) ) ;
#24 = PERSON_AND_ORGANIZATION ( #115, #205 ) ;
#25 = PERSON_AND_ORGANIZATION ( #115, #205 ) ;
#26 = ADVANCED_FACE ( 'NONE', ( #163 ), #160, .T. ) ;
#27 = CLOSED_SHELL ( 'NONE', ( #197, #26, #3, #54, #221, #153, #245 ) ) ;
#28 = DIRECTION ( 'NONE',  ( 0.000000000000000000, 0.000000000000000000, 1.000000000000000000 ) ) ;
#29 = CC_DESIGN_APPROVAL ( #114, ( #9 ) ) ;
#30 = ORIENTED_EDGE ( 'NONE', *, *, #164, .T. ) ;
#31 = DIRECTION ( 'NONE',  ( -0.000000000000000000, -0.000000000000000000, -1.000000000000000000 ) ) ;
#32 = CARTESIAN_POINT ( 'NONE',  ( 0.000000000000000000, 0.000000000000000000, 160.0000000000000000 ) ) ;
#33 = CARTESIAN_POINT ( 'NONE',  ( 0.000000000000000000, 0.000000000000000000, 160.0000000000000000 ) ) ;
#34 = CC_DESIGN_PERSON_AND_ORGANIZATION_ASSIGNMENT ( #184, #2, ( #136 ) ) ;
#35 = AXIS2_PLACEMENT_3D ( 'NONE', #248, #113, #6 ) ;
#36 = EDGE_LOOP ( 'NONE', ( #213, #57 ) ) ;
#37 = APPLICATION_PROTOCOL_DEFINITION ( 'international standard', 'config_control_design', 1994, #8 ) ;
#38 = CYLINDRICAL_SURFACE ( 'NONE', #63, 8.000000000000000000 ) ;
#39 = DIRECTION ( 'NONE',  ( 1.000000000000000000, 0.000000000000000000, 0.000000000000000000 ) ) ;
#40 = PERSON_AND_ORGANIZATION ( #115, #205 ) ;
#41 = COORDINATED_UNIVERSAL_TIME_OFFSET ( 1, 0, .AHEAD. ) ;
#42 = LOCAL_TIME ( 12, 27, 54.00000000000000000, #85 ) ;
#43 = VERTEX_POINT ( 'NONE', #181 ) ;
#44 = EDGE_CURVE ( 'NONE', #102, #21, #118, .T. ) ;
#45 = ORIENTED_EDGE ( 'NONE', *, *, #201, .F. ) ;
#46 = EDGE_CURVE ( 'NONE', #16, #78, #236, .T. ) ;
#47 = APPROVAL_DATE_TIME ( #254, #114 ) ;
#48 = LINE ( 'NONE', #128, #162 ) ;
#49 = APPROVAL_ROLE ( '' ) ;
#50 = CIRCLE ( 'NONE', #192, 8.000000000000000000 ) ;
#51 = AXIS2_PLACEMENT_3D ( 'NONE', #32, #240, #92 ) ;
#52 = DIRECTION ( 'NONE',  ( 0.000000000000000000, 0.000000000000000000, 1.000000000000000000 ) ) ;
#53 = LINE ( 'NONE', #222, #170 ) ;
#54 = ADVANCED_FACE ( 'NONE', ( #68, #110 ), #219, .T. ) ;
#55 = ORIENTED_EDGE ( 'NONE', *, *, #138, .T. ) ;
#56 = CC_DESIGN_APPROVAL ( #231, ( #136 ) ) ;
#57 = ORIENTED_EDGE ( 'NONE', *, *, #112, .F. ) ;
#58 = DIRECTION ( 'NONE',  ( -0.000000000000000000, -0.000000000000000000, -1.000000000000000000 ) ) ;
#59 = AXIS2_PLACEMENT_3D ( 'NONE', #70, #167, #188 ) ;
#60 = AXIS2_PLACEMENT_3D ( 'NONE', #208, #148, #117 ) ;
#61 = APPROVAL_ROLE ( '' ) ;
#62 = CARTESIAN_POINT ( 'NONE',  ( 0.000000000000000000, 0.000000000000000000, 5.000000000000000000 ) ) ;
#63 = AXIS2_PLACEMENT_3D ( 'NONE', #194, #17, #106 ) ;
#64 = DIRECTION ( 'NONE',  ( -0.000000000000000000, -0.000000000000000000, -1.000000000000000000 ) ) ;
#65 = AXIS2_PLACEMENT_3D ( 'NONE', #33, #171, #73 ) ;
#66 = ORIENTED_EDGE ( 'NONE', *, *, #138, .F. ) ;
#67 =( GEOMETRIC_REPRESENTATION_CONTEXT ( 3 ) GLOBAL_UNCERTAINTY_ASSIGNED_CONTEXT ( ( #239 ) ) GLOBAL_UNIT_ASSIGNED_CONTEXT ( ( #190, #121, #101 ) ) REPRESENTATION_CONTEXT ( 'NONE', 'WORKASPACE' ) );
#68 = FACE_BOUND ( 'NONE', #96, .T. ) ;
#69 = FACE_OUTER_BOUND ( 'NONE', #36, .T. ) ;
#70 = CARTESIAN_POINT ( 'NONE',  ( 0.000000000000000000, 0.000000000000000000, 5.000000000000000000 ) ) ;
#71 = CARTESIAN_POINT ( 'NONE',  ( 0.000000000000000000, 0.000000000000000000, 160.0000000000000000 ) ) ;
#72 = EDGE_CURVE ( 'NONE', #21, #159, #75, .T. ) ;
#73 = DIRECTION ( 'NONE',  ( -1.000000000000000000, 0.000000000000000000, 0.000000000000000000 ) ) ;
#74 = VERTEX_POINT ( 'NONE', #103 ) ;
#75 = LINE ( 'NONE', #255, #210 ) ;
#76 = DIRECTION ( 'NONE',  ( 1.000000000000000000, 0.000000000000000000, -0.000000000000000000 ) ) ;
#77 = DIRECTION ( 'NONE',  ( 1.000000000000000000, 0.000000000000000000, -0.000000000000000000 ) ) ;
#78 = VERTEX_POINT ( 'NONE', #83 ) ;
#79 = PERSON_AND_ORGANIZATION ( #115, #205 ) ;
#80 = PERSON_AND_ORGANIZATION ( #115, #205 ) ;
#81 = ORIENTED_EDGE ( 'NONE', *, *, #189, .F. ) ;
#82 = ORIENTED_EDGE ( 'NONE', *, *, #46, .F. ) ;
#83 = CARTESIAN_POINT ( 'NONE',  ( -5.000000000000000888, 0.000000000000000000, 5.000000000000000000 ) ) ;
#84 = AXIS2_PLACEMENT_3D ( 'NONE', #191, #116, #76 ) ;
#85 = COORDINATED_UNIVERSAL_TIME_OFFSET ( 1, 0, .AHEAD. ) ;
#86 = DATE_AND_TIME ( #87, #158 ) ;
#87 = CALENDAR_DATE ( 2023, 12, 2 ) ;
#88 = APPLICATION_CONTEXT ( 'configuration controlled 3d designs of mechanical parts and assemblies' ) ;
#89 = CARTESIAN_POINT ( 'NONE',  ( 0.000000000000000000, 0.000000000000000000, 5.000000000000000000 ) ) ;
#90 = CARTESIAN_POINT ( 'NONE',  ( 0.000000000000000000, 0.000000000000000000, 0.000000000000000000 ) ) ;
#91 = APPROVAL_PERSON_ORGANIZATION ( #79, #150, #61 ) ;
#92 = DIRECTION ( 'NONE',  ( 1.000000000000000000, 0.000000000000000000, 0.000000000000000000 ) ) ;
#93 = EDGE_CURVE ( 'NONE', #173, #43, #232, .T. ) ;
#94 = AXIS2_PLACEMENT_3D ( 'NONE', #89, #126, #77 ) ;
#95 = AXIS2_PLACEMENT_3D ( 'NONE', #223, #52, #244 ) ;
#96 = EDGE_LOOP ( 'NONE', ( #209, #82 ) ) ;
#97 = EDGE_LOOP ( 'NONE', ( #234, #14, #196, #247 ) ) ;
#98 = EDGE_LOOP ( 'NONE', ( #250, #30, #252, #81 ) ) ;
#99 = LOCAL_TIME ( 12, 27, 54.00000000000000000, #41 ) ;
#100 = CC_DESIGN_PERSON_AND_ORGANIZATION_ASSIGNMENT ( #25, #109, ( #9 ) ) ;
#101 =( NAMED_UNIT ( * ) SI_UNIT ( $, .STERADIAN. ) SOLID_ANGLE_UNIT ( ) );
#102 = VERTEX_POINT ( 'NONE', #18 ) ;
#103 = CARTESIAN_POINT ( 'NONE',  ( -8.000000000000000000, 0.000000000000000000, 0.000000000000000000 ) ) ;
#104 = CC_DESIGN_PERSON_AND_ORGANIZATION_ASSIGNMENT ( #40, #176, ( #129 ) ) ;
#105 = APPROVAL_ROLE ( '' ) ;
#106 = DIRECTION ( 'NONE',  ( -1.000000000000000000, 0.000000000000000000, 0.000000000000000000 ) ) ;
#107 = COORDINATED_UNIVERSAL_TIME_OFFSET ( 1, 0, .AHEAD. ) ;
#108 = CARTESIAN_POINT ( 'NONE',  ( 8.000000000000000000, 9.797174393178825657E-16, 5.000000000000000000 ) ) ;
#109 = PERSON_AND_ORGANIZATION_ROLE ( 'classification_officer' ) ;
#110 = FACE_OUTER_BOUND ( 'NONE', #135, .T. ) ;
#111 = DATE_AND_TIME ( #146, #154 ) ;
#112 = EDGE_CURVE ( 'NONE', #159, #74, #12, .T. ) ;
#113 = DIRECTION ( 'NONE',  ( 0.000000000000000000, 0.000000000000000000, 1.000000000000000000 ) ) ;
#114 = APPROVAL ( #238, 'NEURÈENÝ' ) ;
#115 = PERSON ( 'NEURÈENÝ', 'NEURÈENÝ', 'NEURÈENÝ', ('NEURÈENÝ'), ('NEURÈENÝ'), ('NEURÈENÝ') ) ;
#116 = DIRECTION ( 'NONE',  ( 0.000000000000000000, 0.000000000000000000, 1.000000000000000000 ) ) ;
#117 = DIRECTION ( 'NONE',  ( 1.000000000000000000, 0.000000000000000000, -0.000000000000000000 ) ) ;
#118 = CIRCLE ( 'NONE', #187, 8.000000000000000000 ) ;
#119 = EDGE_LOOP ( 'NONE', ( #124, #66, #229, #122 ) ) ;
#120 = EDGE_CURVE ( 'NONE', #102, #74, #48, .T. ) ;
#121 =( NAMED_UNIT ( * ) PLANE_ANGLE_UNIT ( ) SI_UNIT ( $, .RADIAN. ) );
#122 = ORIENTED_EDGE ( 'NONE', *, *, #11, .T. ) ;
#123 = PERSON_AND_ORGANIZATION_ROLE ( 'creator' ) ;
#124 = ORIENTED_EDGE ( 'NONE', *, *, #164, .F. ) ;
#125 = PERSON_AND_ORGANIZATION ( #115, #205 ) ;
#126 = DIRECTION ( 'NONE',  ( 0.000000000000000000, 0.000000000000000000, 1.000000000000000000 ) ) ;
#127 = APPROVAL_DATE_TIME ( #111, #231 ) ;
#128 = CARTESIAN_POINT ( 'NONE',  ( -8.000000000000000000, 0.000000000000000000, 5.000000000000000000 ) ) ;
#129 = PRODUCT ( 'fb84', 'fb84', '', ( #161 ) ) ;
#130 = AXIS2_PLACEMENT_3D ( 'NONE', #147, #174, #39 ) ;
#131 = CIRCLE ( 'NONE', #95, 8.000000000000000000 ) ;
#132 = EDGE_CURVE ( 'NONE', #74, #159, #50, .T. ) ;
#133 = PLANE ( 'NONE',  #84 ) ;
#134 = DIRECTION ( 'NONE',  ( -1.000000000000000000, 0.000000000000000000, 0.000000000000000000 ) ) ;
#135 = EDGE_LOOP ( 'NONE', ( #203, #246 ) ) ;
#136 = PRODUCT_DEFINITION_FORMATION_WITH_SPECIFIED_SOURCE ( 'LIBOVOLNÝ', '', #129, .NOT_KNOWN. ) ;
#137 = FACE_OUTER_BOUND ( 'NONE', #98, .T. ) ;
#138 = EDGE_CURVE ( 'NONE', #43, #173, #13, .T. ) ;
#139 = FACE_OUTER_BOUND ( 'NONE', #119, .T. ) ;
#140 = CARTESIAN_POINT ( 'NONE',  ( 0.000000000000000000, 0.000000000000000000, 0.000000000000000000 ) ) ;
#141 = EDGE_LOOP ( 'NONE', ( #45, #226, #151, #224 ) ) ;
#142 = DIRECTION ( 'NONE',  ( 0.000000000000000000, 0.000000000000000000, 1.000000000000000000 ) ) ;
#143 = APPROVAL_DATE_TIME ( #179, #150 ) ;
#144 = CALENDAR_DATE ( 2023, 12, 2 ) ;
#145 = ORIENTED_EDGE ( 'NONE', *, *, #93, .T. ) ;
#146 = CALENDAR_DATE ( 2023, 12, 2 ) ;
#147 = CARTESIAN_POINT ( 'NONE',  ( 0.000000000000000000, 0.000000000000000000, 160.0000000000000000 ) ) ;
#148 = DIRECTION ( 'NONE',  ( 0.000000000000000000, 0.000000000000000000, 1.000000000000000000 ) ) ;
#149 = CYLINDRICAL_SURFACE ( 'NONE', #65, 5.000000000000000888 ) ;
#150 = APPROVAL ( #228, 'NEURÈENÝ' ) ;
#151 = ORIENTED_EDGE ( 'NONE', *, *, #112, .T. ) ;
#152 = CARTESIAN_POINT ( 'NONE',  ( 8.000000000000000000, 9.797174393178825657E-16, 0.000000000000000000 ) ) ;
#153 = ADVANCED_FACE ( 'NONE', ( #139 ), #186, .T. ) ;
#154 = LOCAL_TIME ( 12, 27, 54.00000000000000000, #183 ) ;
#155 = DIRECTION ( 'NONE',  ( 1.000000000000000000, 0.000000000000000000, 0.000000000000000000 ) ) ;
#156 = CC_DESIGN_DATE_AND_TIME_ASSIGNMENT ( #86, #166, ( #9 ) ) ;
#157 = FACE_OUTER_BOUND ( 'NONE', #97, .T. ) ;
#158 = LOCAL_TIME ( 12, 27, 54.00000000000000000, #107 ) ;
#159 = VERTEX_POINT ( 'NONE', #152 ) ;
#160 = CYLINDRICAL_SURFACE ( 'NONE', #175, 8.000000000000000000 ) ;
#161 = MECHANICAL_CONTEXT ( 'NONE', #8, 'mechanical' ) ;
#162 = VECTOR ( 'NONE', #199, 1000.000000000000000 ) ;
#163 = FACE_OUTER_BOUND ( 'NONE', #141, .T. ) ;
#164 = EDGE_CURVE ( 'NONE', #173, #16, #168, .T. ) ;
#165 = APPROVAL_PERSON_ORGANIZATION ( #125, #231, #49 ) ;
#166 = DATE_TIME_ROLE ( 'classification_date' ) ;
#167 = DIRECTION ( 'NONE',  ( 0.000000000000000000, 0.000000000000000000, 1.000000000000000000 ) ) ;
#168 = LINE ( 'NONE', #10, #178 ) ;
#169 = PRODUCT_DEFINITION_SHAPE ( 'NONE', 'NONE',  #235 ) ;
#170 = VECTOR ( 'NONE', #31, 1000.000000000000000 ) ;
#171 = DIRECTION ( 'NONE',  ( -0.000000000000000000, -0.000000000000000000, -1.000000000000000000 ) ) ;
#172 = CIRCLE ( 'NONE', #200, 5.000000000000000888 ) ;
#173 = VERTEX_POINT ( 'NONE', #241 ) ;
#174 = DIRECTION ( 'NONE',  ( 0.000000000000000000, 0.000000000000000000, 1.000000000000000000 ) ) ;
#175 = AXIS2_PLACEMENT_3D ( 'NONE', #230, #64, #23 ) ;
#176 = PERSON_AND_ORGANIZATION_ROLE ( 'design_owner' ) ;
#177 = PRODUCT_RELATED_PRODUCT_CATEGORY ( 'detail', '', ( #129 ) ) ;
#178 = VECTOR ( 'NONE', #225, 1000.000000000000000 ) ;
#179 = DATE_AND_TIME ( #19, #237 ) ;
#180 = DIRECTION ( 'NONE',  ( 1.000000000000000000, 0.000000000000000000, 0.000000000000000000 ) ) ;
#181 = CARTESIAN_POINT ( 'NONE',  ( -5.000000000000000888, 0.000000000000000000, 160.0000000000000000 ) ) ;
#182 = APPROVAL_STATUS ( 'not_yet_approved' ) ;
#183 = COORDINATED_UNIVERSAL_TIME_OFFSET ( 1, 0, .AHEAD. ) ;
#184 = PERSON_AND_ORGANIZATION ( #115, #205 ) ;
#185 = CC_DESIGN_PERSON_AND_ORGANIZATION_ASSIGNMENT ( #80, #123, ( #235 ) ) ;
#186 = CYLINDRICAL_SURFACE ( 'NONE', #5, 5.000000000000000888 ) ;
#187 = AXIS2_PLACEMENT_3D ( 'NONE', #253, #217, #204 ) ;
#188 = DIRECTION ( 'NONE',  ( 1.000000000000000000, 0.000000000000000000, 0.000000000000000000 ) ) ;
#189 = EDGE_CURVE ( 'NONE', #43, #78, #53, .T. ) ;
#190 =( LENGTH_UNIT ( ) NAMED_UNIT ( * ) SI_UNIT ( .MILLI., .METRE. ) );
#191 = CARTESIAN_POINT ( 'NONE',  ( 0.000000000000000000, 0.000000000000000000, 160.0000000000000000 ) ) ;
#192 = AXIS2_PLACEMENT_3D ( 'NONE', #90, #28, #206 ) ;
#193 = EDGE_LOOP ( 'NONE', ( #55, #145 ) ) ;
#194 = CARTESIAN_POINT ( 'NONE',  ( 0.000000000000000000, 0.000000000000000000, 5.000000000000000000 ) ) ;
#195 = APPROVAL_PERSON_ORGANIZATION ( #1, #114, #105 ) ;
#196 = ORIENTED_EDGE ( 'NONE', *, *, #120, .T. ) ;
#197 = ADVANCED_FACE ( 'NONE', ( #137 ), #149, .T. ) ;
#198 = SHAPE_DEFINITION_REPRESENTATION ( #169, #15 ) ;
#199 = DIRECTION ( 'NONE',  ( -0.000000000000000000, -0.000000000000000000, -1.000000000000000000 ) ) ;
#200 = AXIS2_PLACEMENT_3D ( 'NONE', #62, #142, #180 ) ;
#201 = EDGE_CURVE ( 'NONE', #21, #102, #131, .T. ) ;
#202 = MANIFOLD_SOLID_BREP ( 'Pøidat vysunutím3', #27 ) ;
#203 = ORIENTED_EDGE ( 'NONE', *, *, #44, .T. ) ;
#204 = DIRECTION ( 'NONE',  ( 1.000000000000000000, 0.000000000000000000, 0.000000000000000000 ) ) ;
#205 = ORGANIZATION ( 'NEURÈENÝ', 'NEURÈENÝ', '' ) ;
#206 = DIRECTION ( 'NONE',  ( 1.000000000000000000, 0.000000000000000000, 0.000000000000000000 ) ) ;
#207 = CC_DESIGN_DATE_AND_TIME_ASSIGNMENT ( #20, #215, ( #235 ) ) ;
#208 = CARTESIAN_POINT ( 'NONE',  ( 0.000000000000000000, 0.000000000000000000, 0.000000000000000000 ) ) ;
#209 = ORIENTED_EDGE ( 'NONE', *, *, #11, .F. ) ;
#210 = VECTOR ( 'NONE', #22, 1000.000000000000000 ) ;
#211 = DIRECTION ( 'NONE',  ( 0.000000000000000000, 0.000000000000000000, 1.000000000000000000 ) ) ;
#212 = COORDINATED_UNIVERSAL_TIME_OFFSET ( 1, 0, .AHEAD. ) ;
#213 = ORIENTED_EDGE ( 'NONE', *, *, #132, .F. ) ;
#214 = CC_DESIGN_SECURITY_CLASSIFICATION ( #9, ( #136 ) ) ;
#215 = DATE_TIME_ROLE ( 'creation_date' ) ;
#216 = CALENDAR_DATE ( 2023, 12, 2 ) ;
#217 = DIRECTION ( 'NONE',  ( 0.000000000000000000, 0.000000000000000000, 1.000000000000000000 ) ) ;
#218 = CC_DESIGN_PERSON_AND_ORGANIZATION_ASSIGNMENT ( #24, #233, ( #136 ) ) ;
#219 = PLANE ( 'NONE',  #94 ) ;
#220 = FACE_OUTER_BOUND ( 'NONE', #193, .T. ) ;
#221 = ADVANCED_FACE ( 'NONE', ( #69 ), #242, .F. ) ;
#222 = CARTESIAN_POINT ( 'NONE',  ( -5.000000000000000888, 0.000000000000000000, 160.0000000000000000 ) ) ;
#223 = CARTESIAN_POINT ( 'NONE',  ( 0.000000000000000000, 0.000000000000000000, 5.000000000000000000 ) ) ;
#224 = ORIENTED_EDGE ( 'NONE', *, *, #120, .F. ) ;
#225 = DIRECTION ( 'NONE',  ( -0.000000000000000000, -0.000000000000000000, -1.000000000000000000 ) ) ;
#226 = ORIENTED_EDGE ( 'NONE', *, *, #72, .T. ) ;
#227 = CC_DESIGN_APPROVAL ( #150, ( #235 ) ) ;
#228 = APPROVAL_STATUS ( 'not_yet_approved' ) ;
#229 = ORIENTED_EDGE ( 'NONE', *, *, #189, .T. ) ;
#230 = CARTESIAN_POINT ( 'NONE',  ( 0.000000000000000000, 0.000000000000000000, 5.000000000000000000 ) ) ;
#231 = APPROVAL ( #182, 'NEURÈENÝ' ) ;
#232 = CIRCLE ( 'NONE', #130, 5.000000000000000888 ) ;
#233 = PERSON_AND_ORGANIZATION_ROLE ( 'design_supplier' ) ;
#234 = ORIENTED_EDGE ( 'NONE', *, *, #72, .F. ) ;
#235 = PRODUCT_DEFINITION ( 'NEZNÁMÝ', '', #136, #7 ) ;
#236 = CIRCLE ( 'NONE', #59, 5.000000000000000888 ) ;
#237 = LOCAL_TIME ( 12, 27, 54.00000000000000000, #212 ) ;
#238 = APPROVAL_STATUS ( 'not_yet_approved' ) ;
#239 = UNCERTAINTY_MEASURE_WITH_UNIT (LENGTH_MEASURE( 1.000000000000000082E-05 ), #190, 'distance_accuracy_value', 'NONE');
#240 = DIRECTION ( 'NONE',  ( 0.000000000000000000, 0.000000000000000000, 1.000000000000000000 ) ) ;
#241 = CARTESIAN_POINT ( 'NONE',  ( 5.000000000000000888, 6.123233995736767268E-16, 160.0000000000000000 ) ) ;
#242 = PLANE ( 'NONE',  #60 ) ;
#243 = AXIS2_PLACEMENT_3D ( 'NONE', #140, #211, #155 ) ;
#244 = DIRECTION ( 'NONE',  ( 1.000000000000000000, 0.000000000000000000, 0.000000000000000000 ) ) ;
#245 = ADVANCED_FACE ( 'NONE', ( #220 ), #133, .T. ) ;
#246 = ORIENTED_EDGE ( 'NONE', *, *, #201, .T. ) ;
#247 = ORIENTED_EDGE ( 'NONE', *, *, #132, .T. ) ;
#248 = CARTESIAN_POINT ( 'NONE',  ( 0.000000000000000000, 0.000000000000000000, 0.000000000000000000 ) ) ;
#249 = APPLICATION_PROTOCOL_DEFINITION ( 'international standard', 'config_control_design', 1994, #88 ) ;
#250 = ORIENTED_EDGE ( 'NONE', *, *, #93, .F. ) ;
#251 = CARTESIAN_POINT ( 'NONE',  ( 5.000000000000000888, 6.123233995736767268E-16, 5.000000000000000000 ) ) ;
#252 = ORIENTED_EDGE ( 'NONE', *, *, #46, .T. ) ;
#253 = CARTESIAN_POINT ( 'NONE',  ( 0.000000000000000000, 0.000000000000000000, 5.000000000000000000 ) ) ;
#254 = DATE_AND_TIME ( #216, #42 ) ;
#255 = CARTESIAN_POINT ( 'NONE',  ( 8.000000000000000000, 9.797174393178825657E-16, 5.000000000000000000 ) ) ;
ENDSEC;
END-ISO-10303-21;
