ISO-10303-21;
HEADER;
FILE_DESCRIPTION (( 'STEP AP203' ),
    '1' );
FILE_NAME ('c933.STEP',
    '2023-02-12T12:28:26',
    ( '' ),
    ( '' ),
    'SwSTEP 2.0',
    'SolidWorks 2019',
    '' );
FILE_SCHEMA (( 'CONFIG_CONTROL_DESIGN' ));
ENDSEC;

DATA;
#1 = PERSON_AND_ORGANIZATION ( #177, #212 ) ;
#2 = APPROVAL_PERSON_ORGANIZATION ( #79, #69, #103 ) ;
#3 = APPROVAL_STATUS ( 'not_yet_approved' ) ;
#4 = ORIENTED_EDGE ( 'NONE', *, *, #22, .F. ) ;
#5 = CC_DESIGN_APPROVAL ( #18, ( #26 ) ) ;
#6 = PERSON_AND_ORGANIZATION ( #177, #212 ) ;
#7 = ORIENTED_EDGE ( 'NONE', *, *, #9, .F. ) ;
#8 = ORIENTED_EDGE ( 'NONE', *, *, #232, .T. ) ;
#9 = EDGE_CURVE ( 'NONE', #91, #252, #220, .T. ) ;
#10 = LOCAL_TIME ( 13, 28, 26.00000000000000000, #238 ) ;
#11 = DIRECTION ( 'NONE',  ( -1.000000000000000000, 0.000000000000000000, 0.000000000000000000 ) ) ;
#12 = CARTESIAN_POINT ( 'NONE',  ( -2.600000000000000089, 0.000000000000000000, 3.000000000000000000 ) ) ;
#13 = ADVANCED_FACE ( 'NONE', ( #28 ), #113, .F. ) ;
#14 = FACE_OUTER_BOUND ( 'NONE', #74, .T. ) ;
#15 = CC_DESIGN_DATE_AND_TIME_ASSIGNMENT ( #102, #65, ( #224 ) ) ;
#16 = PLANE ( 'NONE',  #32 ) ;
#17 = VECTOR ( 'NONE', #219, 1000.000000000000000 ) ;
#18 = APPROVAL ( #73, 'NEURÈENÝ' ) ;
#19 =( NAMED_UNIT ( * ) PLANE_ANGLE_UNIT ( ) SI_UNIT ( $, .RADIAN. ) );
#20 = AXIS2_PLACEMENT_3D ( 'NONE', #213, #117, #97 ) ;
#21 = DIRECTION ( 'NONE',  ( -0.000000000000000000, -0.000000000000000000, -1.000000000000000000 ) ) ;
#22 = EDGE_CURVE ( 'NONE', #173, #169, #254, .T. ) ;
#23 = APPLICATION_PROTOCOL_DEFINITION ( 'international standard', 'config_control_design', 1994, #251 ) ;
#24 = VERTEX_POINT ( 'NONE', #120 ) ;
#25 = EDGE_LOOP ( 'NONE', ( #206, #190, #107, #93 ) ) ;
#26 = PRODUCT_DEFINITION_FORMATION_WITH_SPECIFIED_SOURCE ( 'LIBOVOLNÝ', '', #95, .NOT_KNOWN. ) ;
#27 = UNCERTAINTY_MEASURE_WITH_UNIT (LENGTH_MEASURE( 1.000000000000000082E-05 ), #205, 'distance_accuracy_value', 'NONE');
#28 = FACE_OUTER_BOUND ( 'NONE', #171, .T. ) ;
#29 = PRODUCT_DEFINITION_SHAPE ( 'NONE', 'NONE',  #165 ) ;
#30 = APPROVAL_DATE_TIME ( #125, #116 ) ;
#31 = ORIENTED_EDGE ( 'NONE', *, *, #33, .F. ) ;
#32 = AXIS2_PLACEMENT_3D ( 'NONE', #230, #98, #61 ) ;
#33 = EDGE_CURVE ( 'NONE', #210, #24, #49, .T. ) ;
#34 = AXIS2_PLACEMENT_3D ( 'NONE', #56, #38, #101 ) ;
#35 = CARTESIAN_POINT ( 'NONE',  ( 5.000000000000000000, 6.123233995736766282E-16, 0.000000000000000000 ) ) ;
#36 = DIRECTION ( 'NONE',  ( 1.000000000000000000, 0.000000000000000000, 0.000000000000000000 ) ) ;
#37 = COORDINATED_UNIVERSAL_TIME_OFFSET ( 1, 0, .AHEAD. ) ;
#38 = DIRECTION ( 'NONE',  ( -0.000000000000000000, -0.000000000000000000, -1.000000000000000000 ) ) ;
#39 = DIRECTION ( 'NONE',  ( 1.000000000000000000, 0.000000000000000000, 0.000000000000000000 ) ) ;
#40 = SECURITY_CLASSIFICATION_LEVEL ( 'unclassified' ) ;
#41 = CALENDAR_DATE ( 2023, 12, 2 ) ;
#42 = ADVANCED_FACE ( 'NONE', ( #246 ), #181, .T. ) ;
#43 = DIRECTION ( 'NONE',  ( 0.000000000000000000, 0.000000000000000000, 1.000000000000000000 ) ) ;
#44 = AXIS2_PLACEMENT_3D ( 'NONE', #55, #111, #53 ) ;
#45 = DIRECTION ( 'NONE',  ( -0.000000000000000000, -0.000000000000000000, -1.000000000000000000 ) ) ;
#46 = ORIENTED_EDGE ( 'NONE', *, *, #22, .T. ) ;
#47 = LOCAL_TIME ( 13, 28, 26.00000000000000000, #52 ) ;
#48 = ORIENTED_EDGE ( 'NONE', *, *, #167, .F. ) ;
#49 = CIRCLE ( 'NONE', #100, 5.000000000000000000 ) ;
#50 = CALENDAR_DATE ( 2023, 12, 2 ) ;
#51 = EDGE_LOOP ( 'NONE', ( #48, #132 ) ) ;
#52 = COORDINATED_UNIVERSAL_TIME_OFFSET ( 1, 0, .AHEAD. ) ;
#53 = DIRECTION ( 'NONE',  ( 1.000000000000000000, 0.000000000000000000, 0.000000000000000000 ) ) ;
#54 = AXIS2_PLACEMENT_3D ( 'NONE', #104, #221, #204 ) ;
#55 = CARTESIAN_POINT ( 'NONE',  ( 0.000000000000000000, 0.000000000000000000, 100.0000000000000000 ) ) ;
#56 = CARTESIAN_POINT ( 'NONE',  ( 0.000000000000000000, 0.000000000000000000, 100.0000000000000000 ) ) ;
#57 = APPROVAL_PERSON_ORGANIZATION ( #184, #116, #199 ) ;
#58 = CARTESIAN_POINT ( 'NONE',  ( 2.600000000000000089, 3.184081677783117698E-16, 100.0000000000000000 ) ) ;
#59 = AXIS2_PLACEMENT_3D ( 'NONE', #121, #216, #77 ) ;
#60 = EDGE_CURVE ( 'NONE', #24, #169, #64, .T. ) ;
#61 = DIRECTION ( 'NONE',  ( 1.000000000000000000, 0.000000000000000000, -0.000000000000000000 ) ) ;
#62 = COORDINATED_UNIVERSAL_TIME_OFFSET ( 1, 0, .AHEAD. ) ;
#63 = EDGE_CURVE ( 'NONE', #211, #75, #168, .T. ) ;
#64 = LINE ( 'NONE', #142, #17 ) ;
#65 = DATE_TIME_ROLE ( 'classification_date' ) ;
#66 =( NAMED_UNIT ( * ) SI_UNIT ( $, .STERADIAN. ) SOLID_ANGLE_UNIT ( ) );
#67 = DIRECTION ( 'NONE',  ( 0.000000000000000000, 0.000000000000000000, 1.000000000000000000 ) ) ;
#68 = CC_DESIGN_PERSON_AND_ORGANIZATION_ASSIGNMENT ( #234, #160, ( #224 ) ) ;
#69 = APPROVAL ( #158, 'NEURÈENÝ' ) ;
#70 = CC_DESIGN_DATE_AND_TIME_ASSIGNMENT ( #110, #92, ( #165 ) ) ;
#71 = CIRCLE ( 'NONE', #130, 5.000000000000000000 ) ;
#72 = ORIENTED_EDGE ( 'NONE', *, *, #33, .T. ) ;
#73 = APPROVAL_STATUS ( 'not_yet_approved' ) ;
#74 = EDGE_LOOP ( 'NONE', ( #8, #225 ) ) ;
#75 = VERTEX_POINT ( 'NONE', #12 ) ;
#76 = CLOSED_SHELL ( 'NONE', ( #236, #90, #182, #106, #13, #42, #223 ) ) ;
#77 = DIRECTION ( 'NONE',  ( -1.000000000000000000, 0.000000000000000000, 0.000000000000000000 ) ) ;
#78 = CARTESIAN_POINT ( 'NONE',  ( 0.000000000000000000, 0.000000000000000000, 3.000000000000000000 ) ) ;
#79 = PERSON_AND_ORGANIZATION ( #177, #212 ) ;
#80 = LOCAL_TIME ( 13, 28, 26.00000000000000000, #62 ) ;
#81 = CYLINDRICAL_SURFACE ( 'NONE', #170, 5.000000000000000000 ) ;
#82 = CARTESIAN_POINT ( 'NONE',  ( 2.600000000000000089, 3.184081677783117698E-16, 100.0000000000000000 ) ) ;
#83 = CARTESIAN_POINT ( 'NONE',  ( 0.000000000000000000, 0.000000000000000000, 3.000000000000000000 ) ) ;
#84 = DIRECTION ( 'NONE',  ( 1.000000000000000000, 0.000000000000000000, -0.000000000000000000 ) ) ;
#85 = SHAPE_DEFINITION_REPRESENTATION ( #29, #194 ) ;
#86 = CARTESIAN_POINT ( 'NONE',  ( 0.000000000000000000, 0.000000000000000000, 0.000000000000000000 ) ) ;
#87 = CC_DESIGN_PERSON_AND_ORGANIZATION_ASSIGNMENT ( #209, #242, ( #26 ) ) ;
#88 = LINE ( 'NONE', #148, #195 ) ;
#89 = APPLICATION_PROTOCOL_DEFINITION ( 'international standard', 'config_control_design', 1994, #222 ) ;
#90 = ADVANCED_FACE ( 'NONE', ( #200 ), #99, .T. ) ;
#91 = VERTEX_POINT ( 'NONE', #82 ) ;
#92 = DATE_TIME_ROLE ( 'creation_date' ) ;
#93 = ORIENTED_EDGE ( 'NONE', *, *, #136, .T. ) ;
#94 = CIRCLE ( 'NONE', #231, 5.000000000000000000 ) ;
#95 = PRODUCT ( 'c933', 'c933', '', ( #105 ) ) ;
#96 = DIRECTION ( 'NONE',  ( -0.000000000000000000, -0.000000000000000000, -1.000000000000000000 ) ) ;
#97 = DIRECTION ( 'NONE',  ( 1.000000000000000000, 0.000000000000000000, -0.000000000000000000 ) ) ;
#98 = DIRECTION ( 'NONE',  ( 0.000000000000000000, 0.000000000000000000, 1.000000000000000000 ) ) ;
#99 = CYLINDRICAL_SURFACE ( 'NONE', #59, 5.000000000000000000 ) ;
#100 = AXIS2_PLACEMENT_3D ( 'NONE', #124, #179, #36 ) ;
#101 = DIRECTION ( 'NONE',  ( -1.000000000000000000, 0.000000000000000000, 0.000000000000000000 ) ) ;
#102 = DATE_AND_TIME ( #183, #163 ) ;
#103 = APPROVAL_ROLE ( '' ) ;
#104 = CARTESIAN_POINT ( 'NONE',  ( 0.000000000000000000, 0.000000000000000000, 100.0000000000000000 ) ) ;
#105 = MECHANICAL_CONTEXT ( 'NONE', #251, 'mechanical' ) ;
#106 = ADVANCED_FACE ( 'NONE', ( #155, #137 ), #196, .T. ) ;
#107 = ORIENTED_EDGE ( 'NONE', *, *, #60, .T. ) ;
#108 = ORIENTED_EDGE ( 'NONE', *, *, #243, .F. ) ;
#109 = EDGE_CURVE ( 'NONE', #91, #211, #228, .T. ) ;
#110 = DATE_AND_TIME ( #50, #10 ) ;
#111 = DIRECTION ( 'NONE',  ( 0.000000000000000000, 0.000000000000000000, 1.000000000000000000 ) ) ;
#112 = CALENDAR_DATE ( 2023, 12, 2 ) ;
#113 = PLANE ( 'NONE',  #172 ) ;
#114 = PERSON_AND_ORGANIZATION_ROLE ( 'creator' ) ;
#115 = EDGE_LOOP ( 'NONE', ( #154, #208, #237, #240 ) ) ;
#116 = APPROVAL ( #3, 'NEURÈENÝ' ) ;
#117 = DIRECTION ( 'NONE',  ( 0.000000000000000000, 0.000000000000000000, 1.000000000000000000 ) ) ;
#118 = AXIS2_PLACEMENT_3D ( 'NONE', #78, #43, #126 ) ;
#119 = DIRECTION ( 'NONE',  ( 1.000000000000000000, 0.000000000000000000, 0.000000000000000000 ) ) ;
#120 = CARTESIAN_POINT ( 'NONE',  ( -5.000000000000000000, 0.000000000000000000, 3.000000000000000000 ) ) ;
#121 = CARTESIAN_POINT ( 'NONE',  ( 0.000000000000000000, 0.000000000000000000, 3.000000000000000000 ) ) ;
#122 = CC_DESIGN_APPROVAL ( #116, ( #165 ) ) ;
#123 = CARTESIAN_POINT ( 'NONE',  ( 0.000000000000000000, 0.000000000000000000, 100.0000000000000000 ) ) ;
#124 = CARTESIAN_POINT ( 'NONE',  ( 0.000000000000000000, 0.000000000000000000, 3.000000000000000000 ) ) ;
#125 = DATE_AND_TIME ( #41, #138 ) ;
#126 = DIRECTION ( 'NONE',  ( 1.000000000000000000, 0.000000000000000000, 0.000000000000000000 ) ) ;
#127 = CC_DESIGN_APPROVAL ( #69, ( #224 ) ) ;
#128 = CARTESIAN_POINT ( 'NONE',  ( -2.600000000000000089, 0.000000000000000000, 100.0000000000000000 ) ) ;
#129 = CIRCLE ( 'NONE', #217, 2.600000000000000089 ) ;
#130 = AXIS2_PLACEMENT_3D ( 'NONE', #83, #175, #119 ) ;
#131 = ORIENTED_EDGE ( 'NONE', *, *, #60, .F. ) ;
#132 = ORIENTED_EDGE ( 'NONE', *, *, #63, .F. ) ;
#133 = EDGE_LOOP ( 'NONE', ( #153, #72 ) ) ;
#134 = CARTESIAN_POINT ( 'NONE',  ( 0.000000000000000000, 0.000000000000000000, 3.000000000000000000 ) ) ;
#135 = DESIGN_CONTEXT ( 'detailed design', #222, 'design' ) ;
#136 = EDGE_CURVE ( 'NONE', #169, #173, #94, .T. ) ;
#137 = FACE_OUTER_BOUND ( 'NONE', #133, .T. ) ;
#138 = LOCAL_TIME ( 13, 28, 26.00000000000000000, #218 ) ;
#139 = DIRECTION ( 'NONE',  ( -0.000000000000000000, -0.000000000000000000, -1.000000000000000000 ) ) ;
#140 = CARTESIAN_POINT ( 'NONE',  ( 0.000000000000000000, 0.000000000000000000, 0.000000000000000000 ) ) ;
#141 = AXIS2_PLACEMENT_3D ( 'NONE', #123, #178, #248 ) ;
#142 = CARTESIAN_POINT ( 'NONE',  ( -5.000000000000000000, 0.000000000000000000, 3.000000000000000000 ) ) ;
#143 = AXIS2_PLACEMENT_3D ( 'NONE', #157, #161, #250 ) ;
#144 = CC_DESIGN_PERSON_AND_ORGANIZATION_ASSIGNMENT ( #1, #201, ( #95 ) ) ;
#145 = CARTESIAN_POINT ( 'NONE',  ( -2.600000000000000089, 0.000000000000000000, 100.0000000000000000 ) ) ;
#146 =( GEOMETRIC_REPRESENTATION_CONTEXT ( 3 ) GLOBAL_UNCERTAINTY_ASSIGNED_CONTEXT ( ( #27 ) ) GLOBAL_UNIT_ASSIGNED_CONTEXT ( ( #205, #19, #66 ) ) REPRESENTATION_CONTEXT ( 'NONE', 'WORKASPACE' ) );
#147 = CC_DESIGN_PERSON_AND_ORGANIZATION_ASSIGNMENT ( #149, #114, ( #165 ) ) ;
#148 = CARTESIAN_POINT ( 'NONE',  ( 5.000000000000000000, 6.123233995736766282E-16, 3.000000000000000000 ) ) ;
#149 = PERSON_AND_ORGANIZATION ( #177, #212 ) ;
#150 = APPROVAL_PERSON_ORGANIZATION ( #188, #18, #152 ) ;
#151 = ORIENTED_EDGE ( 'NONE', *, *, #109, .T. ) ;
#152 = APPROVAL_ROLE ( '' ) ;
#153 = ORIENTED_EDGE ( 'NONE', *, *, #207, .T. ) ;
#154 = ORIENTED_EDGE ( 'NONE', *, *, #109, .F. ) ;
#155 = FACE_BOUND ( 'NONE', #51, .T. ) ;
#156 = CARTESIAN_POINT ( 'NONE',  ( 0.000000000000000000, 0.000000000000000000, 3.000000000000000000 ) ) ;
#157 = CARTESIAN_POINT ( 'NONE',  ( 0.000000000000000000, 0.000000000000000000, 0.000000000000000000 ) ) ;
#158 = APPROVAL_STATUS ( 'not_yet_approved' ) ;
#159 = FACE_OUTER_BOUND ( 'NONE', #174, .T. ) ;
#160 = PERSON_AND_ORGANIZATION_ROLE ( 'classification_officer' ) ;
#161 = DIRECTION ( 'NONE',  ( 0.000000000000000000, 0.000000000000000000, 1.000000000000000000 ) ) ;
#162 = VECTOR ( 'NONE', #45, 1000.000000000000000 ) ;
#163 = LOCAL_TIME ( 13, 28, 26.00000000000000000, #37 ) ;
#164 = PERSON_AND_ORGANIZATION_ROLE ( 'design_supplier' ) ;
#165 = PRODUCT_DEFINITION ( 'NEZNÁMÝ', '', #26, #135 ) ;
#166 = LINE ( 'NONE', #145, #162 ) ;
#167 = EDGE_CURVE ( 'NONE', #75, #211, #129, .T. ) ;
#168 = CIRCLE ( 'NONE', #118, 2.600000000000000089 ) ;
#169 = VERTEX_POINT ( 'NONE', #193 ) ;
#170 = AXIS2_PLACEMENT_3D ( 'NONE', #156, #96, #11 ) ;
#171 = EDGE_LOOP ( 'NONE', ( #241, #4 ) ) ;
#172 = AXIS2_PLACEMENT_3D ( 'NONE', #140, #214, #84 ) ;
#173 = VERTEX_POINT ( 'NONE', #35 ) ;
#174 = EDGE_LOOP ( 'NONE', ( #7, #151, #197, #108 ) ) ;
#175 = DIRECTION ( 'NONE',  ( 0.000000000000000000, 0.000000000000000000, 1.000000000000000000 ) ) ;
#176 = DIRECTION ( 'NONE',  ( 0.000000000000000000, 0.000000000000000000, 1.000000000000000000 ) ) ;
#177 = PERSON ( 'NEURÈENÝ', 'NEURÈENÝ', 'NEURÈENÝ', ('NEURÈENÝ'), ('NEURÈENÝ'), ('NEURÈENÝ') ) ;
#178 = DIRECTION ( 'NONE',  ( 0.000000000000000000, 0.000000000000000000, 1.000000000000000000 ) ) ;
#179 = DIRECTION ( 'NONE',  ( 0.000000000000000000, 0.000000000000000000, 1.000000000000000000 ) ) ;
#180 = AXIS2_PLACEMENT_3D ( 'NONE', #86, #67, #255 ) ;
#181 = CYLINDRICAL_SURFACE ( 'NONE', #34, 2.600000000000000089 ) ;
#182 = ADVANCED_FACE ( 'NONE', ( #245 ), #81, .T. ) ;
#183 = CALENDAR_DATE ( 2023, 12, 2 ) ;
#184 = PERSON_AND_ORGANIZATION ( #177, #212 ) ;
#185 = CYLINDRICAL_SURFACE ( 'NONE', #54, 2.600000000000000089 ) ;
#186 = CC_DESIGN_SECURITY_CLASSIFICATION ( #224, ( #26 ) ) ;
#187 = EDGE_LOOP ( 'NONE', ( #31, #227, #46, #131 ) ) ;
#188 = PERSON_AND_ORGANIZATION ( #177, #212 ) ;
#189 = DIRECTION ( 'NONE',  ( 0.000000000000000000, 0.000000000000000000, 1.000000000000000000 ) ) ;
#190 = ORIENTED_EDGE ( 'NONE', *, *, #207, .F. ) ;
#191 = CARTESIAN_POINT ( 'NONE',  ( 2.600000000000000089, 3.184081677783117698E-16, 3.000000000000000000 ) ) ;
#192 = CARTESIAN_POINT ( 'NONE',  ( 0.000000000000000000, 0.000000000000000000, 0.000000000000000000 ) ) ;
#193 = CARTESIAN_POINT ( 'NONE',  ( -5.000000000000000000, 0.000000000000000000, 0.000000000000000000 ) ) ;
#194 = ADVANCED_BREP_SHAPE_REPRESENTATION ( 'c933', ( #239, #180 ), #146 ) ;
#195 = VECTOR ( 'NONE', #21, 1000.000000000000000 ) ;
#196 = PLANE ( 'NONE',  #20 ) ;
#197 = ORIENTED_EDGE ( 'NONE', *, *, #63, .T. ) ;
#198 = CALENDAR_DATE ( 2023, 12, 2 ) ;
#199 = APPROVAL_ROLE ( '' ) ;
#200 = FACE_OUTER_BOUND ( 'NONE', #187, .T. ) ;
#201 = PERSON_AND_ORGANIZATION_ROLE ( 'design_owner' ) ;
#202 = CC_DESIGN_PERSON_AND_ORGANIZATION_ASSIGNMENT ( #6, #164, ( #26 ) ) ;
#203 = VECTOR ( 'NONE', #139, 1000.000000000000000 ) ;
#204 = DIRECTION ( 'NONE',  ( -1.000000000000000000, 0.000000000000000000, 0.000000000000000000 ) ) ;
#205 =( LENGTH_UNIT ( ) NAMED_UNIT ( * ) SI_UNIT ( .MILLI., .METRE. ) );
#206 = ORIENTED_EDGE ( 'NONE', *, *, #249, .F. ) ;
#207 = EDGE_CURVE ( 'NONE', #24, #210, #71, .T. ) ;
#208 = ORIENTED_EDGE ( 'NONE', *, *, #232, .F. ) ;
#209 = PERSON_AND_ORGANIZATION ( #177, #212 ) ;
#210 = VERTEX_POINT ( 'NONE', #235 ) ;
#211 = VERTEX_POINT ( 'NONE', #191 ) ;
#212 = ORGANIZATION ( 'NEURÈENÝ', 'NEURÈENÝ', '' ) ;
#213 = CARTESIAN_POINT ( 'NONE',  ( 0.000000000000000000, 0.000000000000000000, 3.000000000000000000 ) ) ;
#214 = DIRECTION ( 'NONE',  ( 0.000000000000000000, 0.000000000000000000, 1.000000000000000000 ) ) ;
#215 = DATE_AND_TIME ( #198, #80 ) ;
#216 = DIRECTION ( 'NONE',  ( -0.000000000000000000, -0.000000000000000000, -1.000000000000000000 ) ) ;
#217 = AXIS2_PLACEMENT_3D ( 'NONE', #134, #176, #233 ) ;
#218 = COORDINATED_UNIVERSAL_TIME_OFFSET ( 1, 0, .AHEAD. ) ;
#219 = DIRECTION ( 'NONE',  ( -0.000000000000000000, -0.000000000000000000, -1.000000000000000000 ) ) ;
#220 = CIRCLE ( 'NONE', #44, 2.600000000000000089 ) ;
#221 = DIRECTION ( 'NONE',  ( -0.000000000000000000, -0.000000000000000000, -1.000000000000000000 ) ) ;
#222 = APPLICATION_CONTEXT ( 'configuration controlled 3d designs of mechanical parts and assemblies' ) ;
#223 = ADVANCED_FACE ( 'NONE', ( #14 ), #16, .T. ) ;
#224 = SECURITY_CLASSIFICATION ( '', '', #40 ) ;
#225 = ORIENTED_EDGE ( 'NONE', *, *, #9, .T. ) ;
#226 = APPROVAL_DATE_TIME ( #244, #18 ) ;
#227 = ORIENTED_EDGE ( 'NONE', *, *, #249, .T. ) ;
#228 = LINE ( 'NONE', #58, #203 ) ;
#229 = APPROVAL_DATE_TIME ( #215, #69 ) ;
#230 = CARTESIAN_POINT ( 'NONE',  ( 0.000000000000000000, 0.000000000000000000, 100.0000000000000000 ) ) ;
#231 = AXIS2_PLACEMENT_3D ( 'NONE', #192, #189, #39 ) ;
#232 = EDGE_CURVE ( 'NONE', #252, #91, #247, .T. ) ;
#233 = DIRECTION ( 'NONE',  ( 1.000000000000000000, 0.000000000000000000, 0.000000000000000000 ) ) ;
#234 = PERSON_AND_ORGANIZATION ( #177, #212 ) ;
#235 = CARTESIAN_POINT ( 'NONE',  ( 5.000000000000000000, 6.123233995736766282E-16, 3.000000000000000000 ) ) ;
#236 = ADVANCED_FACE ( 'NONE', ( #159 ), #185, .T. ) ;
#237 = ORIENTED_EDGE ( 'NONE', *, *, #243, .T. ) ;
#238 = COORDINATED_UNIVERSAL_TIME_OFFSET ( 1, 0, .AHEAD. ) ;
#239 = MANIFOLD_SOLID_BREP ( 'Pøidat vysunutím3', #76 ) ;
#240 = ORIENTED_EDGE ( 'NONE', *, *, #167, .T. ) ;
#241 = ORIENTED_EDGE ( 'NONE', *, *, #136, .F. ) ;
#242 = PERSON_AND_ORGANIZATION_ROLE ( 'creator' ) ;
#243 = EDGE_CURVE ( 'NONE', #252, #75, #166, .T. ) ;
#244 = DATE_AND_TIME ( #112, #47 ) ;
#245 = FACE_OUTER_BOUND ( 'NONE', #25, .T. ) ;
#246 = FACE_OUTER_BOUND ( 'NONE', #115, .T. ) ;
#247 = CIRCLE ( 'NONE', #141, 2.600000000000000089 ) ;
#248 = DIRECTION ( 'NONE',  ( 1.000000000000000000, 0.000000000000000000, 0.000000000000000000 ) ) ;
#249 = EDGE_CURVE ( 'NONE', #210, #173, #88, .T. ) ;
#250 = DIRECTION ( 'NONE',  ( 1.000000000000000000, 0.000000000000000000, 0.000000000000000000 ) ) ;
#251 = APPLICATION_CONTEXT ( 'configuration controlled 3d designs of mechanical parts and assemblies' ) ;
#252 = VERTEX_POINT ( 'NONE', #128 ) ;
#253 = PRODUCT_RELATED_PRODUCT_CATEGORY ( 'detail', '', ( #95 ) ) ;
#254 = CIRCLE ( 'NONE', #143, 5.000000000000000000 ) ;
#255 = DIRECTION ( 'NONE',  ( 1.000000000000000000, 0.000000000000000000, 0.000000000000000000 ) ) ;
ENDSEC;
END-ISO-10303-21;
