ISO-10303-21;
HEADER;
FILE_DESCRIPTION (( 'STEP AP203' ),
    '1' );
FILE_NAME ('f6d2.STEP',
    '2023-02-12T10:45:36',
    ( '' ),
    ( '' ),
    'SwSTEP 2.0',
    'SolidWorks 2019',
    '' );
FILE_SCHEMA (( 'CONFIG_CONTROL_DESIGN' ));
ENDSEC;

DATA;
#1 = CC_DESIGN_PERSON_AND_ORGANIZATION_ASSIGNMENT ( #195, #10, ( #58 ) ) ;
#2 = VECTOR ( 'NONE', #127, 1000.000000000000000 ) ;
#3 = CARTESIAN_POINT ( 'NONE',  ( 0.000000000000000000, 0.000000000000000000, 7.000000000000000000 ) ) ;
#4 = VERTEX_POINT ( 'NONE', #255 ) ;
#5 = CC_DESIGN_APPROVAL ( #92, ( #58 ) ) ;
#6 = DATE_AND_TIME ( #136, #225 ) ;
#7 = PLANE ( 'NONE',  #202 ) ;
#8 = APPLICATION_PROTOCOL_DEFINITION ( 'international standard', 'config_control_design', 1994, #111 ) ;
#9 = AXIS2_PLACEMENT_3D ( 'NONE', #253, #223, #67 ) ;
#10 = PERSON_AND_ORGANIZATION_ROLE ( 'design_supplier' ) ;
#11 = CC_DESIGN_DATE_AND_TIME_ASSIGNMENT ( #115, #47, ( #194 ) ) ;
#12 = EDGE_LOOP ( 'NONE', ( #227, #165, #170, #57 ) ) ;
#13 = EDGE_CURVE ( 'NONE', #14, #34, #243, .T. ) ;
#14 = VERTEX_POINT ( 'NONE', #254 ) ;
#15 = DIRECTION ( 'NONE',  ( -0.000000000000000000, -0.000000000000000000, -1.000000000000000000 ) ) ;
#16 = ADVANCED_FACE ( 'NONE', ( #81 ), #167, .T. ) ;
#17 = CARTESIAN_POINT ( 'NONE',  ( 0.000000000000000000, 0.000000000000000000, 800.0000000000000000 ) ) ;
#18 = FACE_OUTER_BOUND ( 'NONE', #104, .T. ) ;
#19 = CC_DESIGN_APPROVAL ( #128, ( #175 ) ) ;
#20 = CARTESIAN_POINT ( 'NONE',  ( 0.000000000000000000, 0.000000000000000000, 7.000000000000000000 ) ) ;
#21 = CC_DESIGN_PERSON_AND_ORGANIZATION_ASSIGNMENT ( #238, #138, ( #194 ) ) ;
#22 = VECTOR ( 'NONE', #15, 1000.000000000000000 ) ;
#23 = UNCERTAINTY_MEASURE_WITH_UNIT (LENGTH_MEASURE( 1.000000000000000082E-05 ), #249, 'distance_accuracy_value', 'NONE');
#24 = DIRECTION ( 'NONE',  ( 1.000000000000000000, 0.000000000000000000, -0.000000000000000000 ) ) ;
#25 = LINE ( 'NONE', #84, #35 ) ;
#26 = PLANE ( 'NONE',  #146 ) ;
#27 = FACE_BOUND ( 'NONE', #250, .T. ) ;
#28 = LOCAL_TIME ( 11, 45, 36.00000000000000000, #244 ) ;
#29 = EDGE_CURVE ( 'NONE', #148, #4, #186, .T. ) ;
#30 = SHAPE_DEFINITION_REPRESENTATION ( #166, #123 ) ;
#31 = CARTESIAN_POINT ( 'NONE',  ( 0.000000000000000000, 0.000000000000000000, 7.000000000000000000 ) ) ;
#32 = DIRECTION ( 'NONE',  ( 0.000000000000000000, 0.000000000000000000, 1.000000000000000000 ) ) ;
#33 = ORIENTED_EDGE ( 'NONE', *, *, #74, .T. ) ;
#34 = VERTEX_POINT ( 'NONE', #82 ) ;
#35 = VECTOR ( 'NONE', #114, 1000.000000000000000 ) ;
#36 = ORIENTED_EDGE ( 'NONE', *, *, #163, .T. ) ;
#37 = AXIS2_PLACEMENT_3D ( 'NONE', #31, #181, #90 ) ;
#38 =( NAMED_UNIT ( * ) SI_UNIT ( $, .STERADIAN. ) SOLID_ANGLE_UNIT ( ) );
#39 = ORIENTED_EDGE ( 'NONE', *, *, #13, .T. ) ;
#40 = EDGE_CURVE ( 'NONE', #91, #145, #161, .T. ) ;
#41 = CIRCLE ( 'NONE', #37, 11.00000000000000000 ) ;
#42 = DIRECTION ( 'NONE',  ( 1.000000000000000000, 0.000000000000000000, 0.000000000000000000 ) ) ;
#43 =( GEOMETRIC_REPRESENTATION_CONTEXT ( 3 ) GLOBAL_UNCERTAINTY_ASSIGNED_CONTEXT ( ( #23 ) ) GLOBAL_UNIT_ASSIGNED_CONTEXT ( ( #249, #97, #38 ) ) REPRESENTATION_CONTEXT ( 'NONE', 'WORKASPACE' ) );
#44 = APPROVAL_ROLE ( '' ) ;
#45 = COORDINATED_UNIVERSAL_TIME_OFFSET ( 1, 0, .AHEAD. ) ;
#46 = FACE_OUTER_BOUND ( 'NONE', #147, .T. ) ;
#47 = DATE_TIME_ROLE ( 'classification_date' ) ;
#48 = CARTESIAN_POINT ( 'NONE',  ( -11.00000000000000000, 0.000000000000000000, 7.000000000000000000 ) ) ;
#49 = VERTEX_POINT ( 'NONE', #237 ) ;
#50 = VERTEX_POINT ( 'NONE', #96 ) ;
#51 = ORIENTED_EDGE ( 'NONE', *, *, #211, .F. ) ;
#52 = ORIENTED_EDGE ( 'NONE', *, *, #59, .F. ) ;
#53 = CC_DESIGN_PERSON_AND_ORGANIZATION_ASSIGNMENT ( #85, #65, ( #58 ) ) ;
#54 = CARTESIAN_POINT ( 'NONE',  ( 0.000000000000000000, 0.000000000000000000, 7.000000000000000000 ) ) ;
#55 = DIRECTION ( 'NONE',  ( -1.000000000000000000, 0.000000000000000000, 0.000000000000000000 ) ) ;
#56 = ADVANCED_FACE ( 'NONE', ( #18 ), #231, .T. ) ;
#57 = ORIENTED_EDGE ( 'NONE', *, *, #29, .F. ) ;
#58 = PRODUCT_DEFINITION_FORMATION_WITH_SPECIFIED_SOURCE ( 'LIBOVOLNÝ', '', #233, .NOT_KNOWN. ) ;
#59 = EDGE_CURVE ( 'NONE', #91, #14, #188, .T. ) ;
#60 = PERSON_AND_ORGANIZATION ( #72, #78 ) ;
#61 = DATE_TIME_ROLE ( 'creation_date' ) ;
#62 = MANIFOLD_SOLID_BREP ( 'Pøidat vysunutím3', #192 ) ;
#63 = APPROVAL_DATE_TIME ( #6, #92 ) ;
#64 = ADVANCED_FACE ( 'NONE', ( #150 ), #109, .T. ) ;
#65 = PERSON_AND_ORGANIZATION_ROLE ( 'creator' ) ;
#66 = AXIS2_PLACEMENT_3D ( 'NONE', #193, #113, #219 ) ;
#67 = DIRECTION ( 'NONE',  ( 1.000000000000000000, 0.000000000000000000, 0.000000000000000000 ) ) ;
#68 = SECURITY_CLASSIFICATION_LEVEL ( 'unclassified' ) ;
#69 = EDGE_LOOP ( 'NONE', ( #185, #121, #124, #39 ) ) ;
#70 = LOCAL_TIME ( 11, 45, 36.00000000000000000, #99 ) ;
#71 = EDGE_CURVE ( 'NONE', #49, #148, #126, .T. ) ;
#72 = PERSON ( 'NEURÈENÝ', 'NEURÈENÝ', 'NEURÈENÝ', ('NEURÈENÝ'), ('NEURÈENÝ'), ('NEURÈENÝ') ) ;
#73 = CIRCLE ( 'NONE', #88, 11.00000000000000000 ) ;
#74 = EDGE_CURVE ( 'NONE', #145, #34, #25, .T. ) ;
#75 = FACE_OUTER_BOUND ( 'NONE', #69, .T. ) ;
#76 = DIRECTION ( 'NONE',  ( 1.000000000000000000, 0.000000000000000000, 0.000000000000000000 ) ) ;
#77 = DIRECTION ( 'NONE',  ( -0.000000000000000000, -0.000000000000000000, -1.000000000000000000 ) ) ;
#78 = ORGANIZATION ( 'NEURÈENÝ', 'NEURÈENÝ', '' ) ;
#79 = MECHANICAL_CONTEXT ( 'NONE', #229, 'mechanical' ) ;
#80 = CC_DESIGN_APPROVAL ( #201, ( #194 ) ) ;
#81 = FACE_OUTER_BOUND ( 'NONE', #107, .T. ) ;
#82 = CARTESIAN_POINT ( 'NONE',  ( 7.000000000000000888, 8.572527594031474176E-16, 7.000000000000000000 ) ) ;
#83 = APPROVAL_PERSON_ORGANIZATION ( #241, #92, #239 ) ;
#84 = CARTESIAN_POINT ( 'NONE',  ( 7.000000000000000888, 8.572527594031474176E-16, 800.0000000000000000 ) ) ;
#85 = PERSON_AND_ORGANIZATION ( #72, #78 ) ;
#86 = DIRECTION ( 'NONE',  ( 0.000000000000000000, 0.000000000000000000, 1.000000000000000000 ) ) ;
#87 = APPROVAL_STATUS ( 'not_yet_approved' ) ;
#88 = AXIS2_PLACEMENT_3D ( 'NONE', #191, #86, #214 ) ;
#89 = APPROVAL_DATE_TIME ( #174, #128 ) ;
#90 = DIRECTION ( 'NONE',  ( 1.000000000000000000, 0.000000000000000000, 0.000000000000000000 ) ) ;
#91 = VERTEX_POINT ( 'NONE', #137 ) ;
#92 = APPROVAL ( #177, 'NEURÈENÝ' ) ;
#93 = AXIS2_PLACEMENT_3D ( 'NONE', #120, #32, #183 ) ;
#94 = ADVANCED_FACE ( 'NONE', ( #46 ), #116, .F. ) ;
#95 = DIRECTION ( 'NONE',  ( -1.000000000000000000, 0.000000000000000000, 0.000000000000000000 ) ) ;
#96 = CARTESIAN_POINT ( 'NONE',  ( 11.00000000000000000, 1.347111479062088405E-15, 0.000000000000000000 ) ) ;
#97 =( NAMED_UNIT ( * ) PLANE_ANGLE_UNIT ( ) SI_UNIT ( $, .RADIAN. ) );
#98 = AXIS2_PLACEMENT_3D ( 'NONE', #3, #169, #235 ) ;
#99 = COORDINATED_UNIVERSAL_TIME_OFFSET ( 1, 0, .AHEAD. ) ;
#100 = PERSON_AND_ORGANIZATION_ROLE ( 'creator' ) ;
#101 = FACE_OUTER_BOUND ( 'NONE', #197, .T. ) ;
#102 = AXIS2_PLACEMENT_3D ( 'NONE', #210, #77, #55 ) ;
#103 = ADVANCED_FACE ( 'NONE', ( #27, #101 ), #7, .T. ) ;
#104 = EDGE_LOOP ( 'NONE', ( #246, #196, #184, #230 ) ) ;
#105 = EDGE_CURVE ( 'NONE', #34, #14, #106, .T. ) ;
#106 = CIRCLE ( 'NONE', #159, 7.000000000000000888 ) ;
#107 = EDGE_LOOP ( 'NONE', ( #200, #33, #187, #52 ) ) ;
#108 = DIRECTION ( 'NONE',  ( -0.000000000000000000, -0.000000000000000000, -1.000000000000000000 ) ) ;
#109 = CYLINDRICAL_SURFACE ( 'NONE', #140, 11.00000000000000000 ) ;
#110 = CARTESIAN_POINT ( 'NONE',  ( 0.000000000000000000, 0.000000000000000000, 7.000000000000000000 ) ) ;
#111 = APPLICATION_CONTEXT ( 'configuration controlled 3d designs of mechanical parts and assemblies' ) ;
#112 = APPLICATION_PROTOCOL_DEFINITION ( 'international standard', 'config_control_design', 1994, #229 ) ;
#113 = DIRECTION ( 'NONE',  ( 0.000000000000000000, 0.000000000000000000, 1.000000000000000000 ) ) ;
#114 = DIRECTION ( 'NONE',  ( -0.000000000000000000, -0.000000000000000000, -1.000000000000000000 ) ) ;
#115 = DATE_AND_TIME ( #217, #70 ) ;
#116 = PLANE ( 'NONE',  #66 ) ;
#117 = ORIENTED_EDGE ( 'NONE', *, *, #142, .T. ) ;
#118 = PERSON_AND_ORGANIZATION ( #72, #78 ) ;
#119 = ORIENTED_EDGE ( 'NONE', *, *, #13, .F. ) ;
#120 = CARTESIAN_POINT ( 'NONE',  ( 0.000000000000000000, 0.000000000000000000, 800.0000000000000000 ) ) ;
#121 = ORIENTED_EDGE ( 'NONE', *, *, #40, .F. ) ;
#122 = EDGE_CURVE ( 'NONE', #4, #50, #73, .T. ) ;
#123 = ADVANCED_BREP_SHAPE_REPRESENTATION ( 'f6d2', ( #62, #215 ), #43 ) ;
#124 = ORIENTED_EDGE ( 'NONE', *, *, #59, .T. ) ;
#125 = AXIS2_PLACEMENT_3D ( 'NONE', #54, #134, #207 ) ;
#126 = CIRCLE ( 'NONE', #190, 11.00000000000000000 ) ;
#127 = DIRECTION ( 'NONE',  ( -0.000000000000000000, -0.000000000000000000, -1.000000000000000000 ) ) ;
#128 = APPROVAL ( #87, 'NEURÈENÝ' ) ;
#129 = PERSON_AND_ORGANIZATION ( #72, #78 ) ;
#130 = CIRCLE ( 'NONE', #93, 7.000000000000000888 ) ;
#131 = ORIENTED_EDGE ( 'NONE', *, *, #40, .T. ) ;
#132 = CC_DESIGN_PERSON_AND_ORGANIZATION_ASSIGNMENT ( #118, #100, ( #175 ) ) ;
#133 = DIRECTION ( 'NONE',  ( 0.000000000000000000, 0.000000000000000000, 1.000000000000000000 ) ) ;
#134 = DIRECTION ( 'NONE',  ( -0.000000000000000000, -0.000000000000000000, -1.000000000000000000 ) ) ;
#135 = APPROVAL_ROLE ( '' ) ;
#136 = CALENDAR_DATE ( 2023, 12, 2 ) ;
#137 = CARTESIAN_POINT ( 'NONE',  ( -7.000000000000000888, 0.000000000000000000, 800.0000000000000000 ) ) ;
#138 = PERSON_AND_ORGANIZATION_ROLE ( 'classification_officer' ) ;
#139 = DATE_AND_TIME ( #213, #182 ) ;
#140 = AXIS2_PLACEMENT_3D ( 'NONE', #110, #189, #95 ) ;
#141 = DIRECTION ( 'NONE',  ( 0.000000000000000000, 0.000000000000000000, 1.000000000000000000 ) ) ;
#142 = EDGE_CURVE ( 'NONE', #148, #49, #41, .T. ) ;
#143 = APPROVAL_STATUS ( 'not_yet_approved' ) ;
#144 = APPROVAL_PERSON_ORGANIZATION ( #224, #128, #135 ) ;
#145 = VERTEX_POINT ( 'NONE', #162 ) ;
#146 = AXIS2_PLACEMENT_3D ( 'NONE', #154, #133, #24 ) ;
#147 = EDGE_LOOP ( 'NONE', ( #245, #51 ) ) ;
#148 = VERTEX_POINT ( 'NONE', #48 ) ;
#149 = CC_DESIGN_PERSON_AND_ORGANIZATION_ASSIGNMENT ( #129, #153, ( #233 ) ) ;
#150 = FACE_OUTER_BOUND ( 'NONE', #12, .T. ) ;
#151 = APPROVAL_PERSON_ORGANIZATION ( #60, #201, #44 ) ;
#152 = CARTESIAN_POINT ( 'NONE',  ( -11.00000000000000000, 0.000000000000000000, 7.000000000000000000 ) ) ;
#153 = PERSON_AND_ORGANIZATION_ROLE ( 'design_owner' ) ;
#154 = CARTESIAN_POINT ( 'NONE',  ( 0.000000000000000000, 0.000000000000000000, 800.0000000000000000 ) ) ;
#155 = CALENDAR_DATE ( 2023, 12, 2 ) ;
#156 = CARTESIAN_POINT ( 'NONE',  ( 0.000000000000000000, 0.000000000000000000, 7.000000000000000000 ) ) ;
#157 = CALENDAR_DATE ( 2023, 12, 2 ) ;
#158 = PRODUCT_RELATED_PRODUCT_CATEGORY ( 'detail', '', ( #233 ) ) ;
#159 = AXIS2_PLACEMENT_3D ( 'NONE', #242, #141, #42 ) ;
#160 = COORDINATED_UNIVERSAL_TIME_OFFSET ( 1, 0, .AHEAD. ) ;
#161 = CIRCLE ( 'NONE', #248, 7.000000000000000888 ) ;
#162 = CARTESIAN_POINT ( 'NONE',  ( 7.000000000000000888, 8.572527594031474176E-16, 800.0000000000000000 ) ) ;
#163 = EDGE_CURVE ( 'NONE', #145, #91, #130, .T. ) ;
#164 = LINE ( 'NONE', #234, #203 ) ;
#165 = ORIENTED_EDGE ( 'NONE', *, *, #178, .T. ) ;
#166 = PRODUCT_DEFINITION_SHAPE ( 'NONE', 'NONE',  #175 ) ;
#167 = CYLINDRICAL_SURFACE ( 'NONE', #102, 7.000000000000000888 ) ;
#168 = CARTESIAN_POINT ( 'NONE',  ( 0.000000000000000000, 0.000000000000000000, 0.000000000000000000 ) ) ;
#169 = DIRECTION ( 'NONE',  ( 0.000000000000000000, 0.000000000000000000, 1.000000000000000000 ) ) ;
#170 = ORIENTED_EDGE ( 'NONE', *, *, #211, .T. ) ;
#171 = DIRECTION ( 'NONE',  ( 1.000000000000000000, 0.000000000000000000, 0.000000000000000000 ) ) ;
#172 = CIRCLE ( 'NONE', #9, 11.00000000000000000 ) ;
#173 = DESIGN_CONTEXT ( 'detailed design', #111, 'design' ) ;
#174 = DATE_AND_TIME ( #157, #179 ) ;
#175 = PRODUCT_DEFINITION ( 'NEZNÁMÝ', '', #58, #173 ) ;
#176 = DATE_AND_TIME ( #155, #28 ) ;
#177 = APPROVAL_STATUS ( 'not_yet_approved' ) ;
#178 = EDGE_CURVE ( 'NONE', #49, #50, #164, .T. ) ;
#179 = LOCAL_TIME ( 11, 45, 36.00000000000000000, #45 ) ;
#180 = DIRECTION ( 'NONE',  ( 0.000000000000000000, 0.000000000000000000, 1.000000000000000000 ) ) ;
#181 = DIRECTION ( 'NONE',  ( 0.000000000000000000, 0.000000000000000000, 1.000000000000000000 ) ) ;
#182 = LOCAL_TIME ( 11, 45, 36.00000000000000000, #220 ) ;
#183 = DIRECTION ( 'NONE',  ( 1.000000000000000000, 0.000000000000000000, 0.000000000000000000 ) ) ;
#184 = ORIENTED_EDGE ( 'NONE', *, *, #29, .T. ) ;
#185 = ORIENTED_EDGE ( 'NONE', *, *, #74, .F. ) ;
#186 = LINE ( 'NONE', #152, #22 ) ;
#187 = ORIENTED_EDGE ( 'NONE', *, *, #105, .T. ) ;
#188 = LINE ( 'NONE', #205, #2 ) ;
#189 = DIRECTION ( 'NONE',  ( -0.000000000000000000, -0.000000000000000000, -1.000000000000000000 ) ) ;
#190 = AXIS2_PLACEMENT_3D ( 'NONE', #20, #221, #171 ) ;
#191 = CARTESIAN_POINT ( 'NONE',  ( 0.000000000000000000, 0.000000000000000000, 0.000000000000000000 ) ) ;
#192 = CLOSED_SHELL ( 'NONE', ( #16, #64, #56, #103, #94, #206, #218 ) ) ;
#193 = CARTESIAN_POINT ( 'NONE',  ( 0.000000000000000000, 0.000000000000000000, 0.000000000000000000 ) ) ;
#194 = SECURITY_CLASSIFICATION ( '', '', #68 ) ;
#195 = PERSON_AND_ORGANIZATION ( #72, #78 ) ;
#196 = ORIENTED_EDGE ( 'NONE', *, *, #142, .F. ) ;
#197 = EDGE_LOOP ( 'NONE', ( #117, #198 ) ) ;
#198 = ORIENTED_EDGE ( 'NONE', *, *, #71, .T. ) ;
#199 = DIRECTION ( 'NONE',  ( -1.000000000000000000, 0.000000000000000000, 0.000000000000000000 ) ) ;
#200 = ORIENTED_EDGE ( 'NONE', *, *, #163, .F. ) ;
#201 = APPROVAL ( #143, 'NEURÈENÝ' ) ;
#202 = AXIS2_PLACEMENT_3D ( 'NONE', #156, #180, #212 ) ;
#203 = VECTOR ( 'NONE', #108, 1000.000000000000000 ) ;
#204 = CYLINDRICAL_SURFACE ( 'NONE', #247, 7.000000000000000888 ) ;
#205 = CARTESIAN_POINT ( 'NONE',  ( -7.000000000000000888, 0.000000000000000000, 800.0000000000000000 ) ) ;
#206 = ADVANCED_FACE ( 'NONE', ( #75 ), #204, .T. ) ;
#207 = DIRECTION ( 'NONE',  ( -1.000000000000000000, 0.000000000000000000, 0.000000000000000000 ) ) ;
#208 = DIRECTION ( 'NONE',  ( 0.000000000000000000, 0.000000000000000000, 1.000000000000000000 ) ) ;
#209 = CARTESIAN_POINT ( 'NONE',  ( 0.000000000000000000, 0.000000000000000000, 800.0000000000000000 ) ) ;
#210 = CARTESIAN_POINT ( 'NONE',  ( 0.000000000000000000, 0.000000000000000000, 800.0000000000000000 ) ) ;
#211 = EDGE_CURVE ( 'NONE', #50, #4, #172, .T. ) ;
#212 = DIRECTION ( 'NONE',  ( 1.000000000000000000, 0.000000000000000000, -0.000000000000000000 ) ) ;
#213 = CALENDAR_DATE ( 2023, 12, 2 ) ;
#214 = DIRECTION ( 'NONE',  ( 1.000000000000000000, 0.000000000000000000, 0.000000000000000000 ) ) ;
#215 = AXIS2_PLACEMENT_3D ( 'NONE', #168, #208, #252 ) ;
#216 = CC_DESIGN_SECURITY_CLASSIFICATION ( #194, ( #58 ) ) ;
#217 = CALENDAR_DATE ( 2023, 12, 2 ) ;
#218 = ADVANCED_FACE ( 'NONE', ( #236 ), #26, .T. ) ;
#219 = DIRECTION ( 'NONE',  ( 1.000000000000000000, 0.000000000000000000, -0.000000000000000000 ) ) ;
#220 = COORDINATED_UNIVERSAL_TIME_OFFSET ( 1, 0, .AHEAD. ) ;
#221 = DIRECTION ( 'NONE',  ( 0.000000000000000000, 0.000000000000000000, 1.000000000000000000 ) ) ;
#222 = APPROVAL_DATE_TIME ( #139, #201 ) ;
#223 = DIRECTION ( 'NONE',  ( 0.000000000000000000, 0.000000000000000000, 1.000000000000000000 ) ) ;
#224 = PERSON_AND_ORGANIZATION ( #72, #78 ) ;
#225 = LOCAL_TIME ( 11, 45, 36.00000000000000000, #160 ) ;
#226 = ORIENTED_EDGE ( 'NONE', *, *, #105, .F. ) ;
#227 = ORIENTED_EDGE ( 'NONE', *, *, #71, .F. ) ;
#228 = EDGE_LOOP ( 'NONE', ( #131, #36 ) ) ;
#229 = APPLICATION_CONTEXT ( 'configuration controlled 3d designs of mechanical parts and assemblies' ) ;
#230 = ORIENTED_EDGE ( 'NONE', *, *, #122, .T. ) ;
#231 = CYLINDRICAL_SURFACE ( 'NONE', #125, 11.00000000000000000 ) ;
#232 = DIRECTION ( 'NONE',  ( 0.000000000000000000, 0.000000000000000000, 1.000000000000000000 ) ) ;
#233 = PRODUCT ( 'f6d2', 'f6d2', '', ( #79 ) ) ;
#234 = CARTESIAN_POINT ( 'NONE',  ( 11.00000000000000000, 1.347111479062088405E-15, 7.000000000000000000 ) ) ;
#235 = DIRECTION ( 'NONE',  ( 1.000000000000000000, 0.000000000000000000, 0.000000000000000000 ) ) ;
#236 = FACE_OUTER_BOUND ( 'NONE', #228, .T. ) ;
#237 = CARTESIAN_POINT ( 'NONE',  ( 11.00000000000000000, 1.347111479062088405E-15, 7.000000000000000000 ) ) ;
#238 = PERSON_AND_ORGANIZATION ( #72, #78 ) ;
#239 = APPROVAL_ROLE ( '' ) ;
#240 = DIRECTION ( 'NONE',  ( -0.000000000000000000, -0.000000000000000000, -1.000000000000000000 ) ) ;
#241 = PERSON_AND_ORGANIZATION ( #72, #78 ) ;
#242 = CARTESIAN_POINT ( 'NONE',  ( 0.000000000000000000, 0.000000000000000000, 7.000000000000000000 ) ) ;
#243 = CIRCLE ( 'NONE', #98, 7.000000000000000888 ) ;
#244 = COORDINATED_UNIVERSAL_TIME_OFFSET ( 1, 0, .AHEAD. ) ;
#245 = ORIENTED_EDGE ( 'NONE', *, *, #122, .F. ) ;
#246 = ORIENTED_EDGE ( 'NONE', *, *, #178, .F. ) ;
#247 = AXIS2_PLACEMENT_3D ( 'NONE', #17, #240, #199 ) ;
#248 = AXIS2_PLACEMENT_3D ( 'NONE', #209, #232, #76 ) ;
#249 =( LENGTH_UNIT ( ) NAMED_UNIT ( * ) SI_UNIT ( .MILLI., .METRE. ) );
#250 = EDGE_LOOP ( 'NONE', ( #119, #226 ) ) ;
#251 = CC_DESIGN_DATE_AND_TIME_ASSIGNMENT ( #176, #61, ( #175 ) ) ;
#252 = DIRECTION ( 'NONE',  ( 1.000000000000000000, 0.000000000000000000, 0.000000000000000000 ) ) ;
#253 = CARTESIAN_POINT ( 'NONE',  ( 0.000000000000000000, 0.000000000000000000, 0.000000000000000000 ) ) ;
#254 = CARTESIAN_POINT ( 'NONE',  ( -7.000000000000000888, 0.000000000000000000, 7.000000000000000000 ) ) ;
#255 = CARTESIAN_POINT ( 'NONE',  ( -11.00000000000000000, 0.000000000000000000, 0.000000000000000000 ) ) ;
ENDSEC;
END-ISO-10303-21;
