ISO-10303-21;
HEADER;
FILE_DESCRIPTION (( 'STEP AP203' ),
    '1' );
FILE_NAME ('3db0.STEP',
    '2023-02-12T10:54:08',
    ( '' ),
    ( '' ),
    'SwSTEP 2.0',
    'SolidWorks 2019',
    '' );
FILE_SCHEMA (( 'CONFIG_CONTROL_DESIGN' ));
ENDSEC;

DATA;
#1 = DATE_AND_TIME ( #133, #11 ) ;
#2 = ORIENTED_EDGE ( 'NONE', *, *, #240, .T. ) ;
#3 = ORIENTED_EDGE ( 'NONE', *, *, #201, .F. ) ;
#4 = SECURITY_CLASSIFICATION ( '', '', #95 ) ;
#5 = AXIS2_PLACEMENT_3D ( 'NONE', #250, #31, #32 ) ;
#6 = FACE_OUTER_BOUND ( 'NONE', #245, .T. ) ;
#7 = VERTEX_POINT ( 'NONE', #205 ) ;
#8 = APPLICATION_PROTOCOL_DEFINITION ( 'international standard', 'config_control_design', 1994, #127 ) ;
#9 = CARTESIAN_POINT ( 'NONE',  ( 0.000000000000000000, 0.000000000000000000, 800.0000000000000000 ) ) ;
#10 = DIRECTION ( 'NONE',  ( 0.000000000000000000, 0.000000000000000000, 1.000000000000000000 ) ) ;
#11 = LOCAL_TIME ( 11, 54, 8.000000000000000000, #54 ) ;
#12 = CARTESIAN_POINT ( 'NONE',  ( 0.000000000000000000, 0.000000000000000000, 7.000000000000000000 ) ) ;
#13 = APPROVAL ( #176, 'NEURÈENÝ' ) ;
#14 = ORIENTED_EDGE ( 'NONE', *, *, #254, .F. ) ;
#15 = SHAPE_DEFINITION_REPRESENTATION ( #87, #136 ) ;
#16 = LOCAL_TIME ( 11, 54, 8.000000000000000000, #156 ) ;
#17 = PERSON_AND_ORGANIZATION_ROLE ( 'design_owner' ) ;
#18 = PERSON_AND_ORGANIZATION_ROLE ( 'classification_officer' ) ;
#19 = EDGE_CURVE ( 'NONE', #116, #80, #253, .T. ) ;
#20 = DIRECTION ( 'NONE',  ( 1.000000000000000000, 0.000000000000000000, 0.000000000000000000 ) ) ;
#21 = PRODUCT_RELATED_PRODUCT_CATEGORY ( 'detail', '', ( #122 ) ) ;
#22 = DIRECTION ( 'NONE',  ( -0.000000000000000000, -0.000000000000000000, -1.000000000000000000 ) ) ;
#23 = CARTESIAN_POINT ( 'NONE',  ( -9.000000000000000000, 0.000000000000000000, 7.000000000000000000 ) ) ;
#24 = ORIENTED_EDGE ( 'NONE', *, *, #19, .T. ) ;
#25 = ORIENTED_EDGE ( 'NONE', *, *, #26, .T. ) ;
#26 = EDGE_CURVE ( 'NONE', #80, #92, #68, .T. ) ;
#27 = AXIS2_PLACEMENT_3D ( 'NONE', #242, #63, #223 ) ;
#28 = DIRECTION ( 'NONE',  ( -0.000000000000000000, -0.000000000000000000, -1.000000000000000000 ) ) ;
#29 = ADVANCED_FACE ( 'NONE', ( #142 ), #188, .T. ) ;
#30 = DIRECTION ( 'NONE',  ( 1.000000000000000000, 0.000000000000000000, 0.000000000000000000 ) ) ;
#31 = DIRECTION ( 'NONE',  ( 0.000000000000000000, 0.000000000000000000, 1.000000000000000000 ) ) ;
#32 = DIRECTION ( 'NONE',  ( 1.000000000000000000, 0.000000000000000000, 0.000000000000000000 ) ) ;
#33 = PERSON_AND_ORGANIZATION ( #251, #72 ) ;
#34 = CIRCLE ( 'NONE', #75, 6.250000000000000000 ) ;
#35 = APPROVAL_STATUS ( 'not_yet_approved' ) ;
#36 = DATE_AND_TIME ( #56, #64 ) ;
#37 = CYLINDRICAL_SURFACE ( 'NONE', #47, 6.250000000000000000 ) ;
#38 = EDGE_CURVE ( 'NONE', #40, #155, #209, .T. ) ;
#39 = AXIS2_PLACEMENT_3D ( 'NONE', #104, #144, #189 ) ;
#40 = VERTEX_POINT ( 'NONE', #85 ) ;
#41 = CYLINDRICAL_SURFACE ( 'NONE', #170, 9.000000000000000000 ) ;
#42 = EDGE_LOOP ( 'NONE', ( #184, #166 ) ) ;
#43 = CC_DESIGN_APPROVAL ( #120, ( #105 ) ) ;
#44 = ORIENTED_EDGE ( 'NONE', *, *, #254, .T. ) ;
#45 = FACE_OUTER_BOUND ( 'NONE', #131, .T. ) ;
#46 = CARTESIAN_POINT ( 'NONE',  ( 0.000000000000000000, 0.000000000000000000, 7.000000000000000000 ) ) ;
#47 = AXIS2_PLACEMENT_3D ( 'NONE', #187, #115, #224 ) ;
#48 = CC_DESIGN_PERSON_AND_ORGANIZATION_ASSIGNMENT ( #238, #200, ( #105 ) ) ;
#49 = CC_DESIGN_APPROVAL ( #13, ( #229 ) ) ;
#50 = CIRCLE ( 'NONE', #186, 9.000000000000000000 ) ;
#51 = DIRECTION ( 'NONE',  ( 0.000000000000000000, 0.000000000000000000, 1.000000000000000000 ) ) ;
#52 = CARTESIAN_POINT ( 'NONE',  ( 0.000000000000000000, 0.000000000000000000, 7.000000000000000000 ) ) ;
#53 = UNCERTAINTY_MEASURE_WITH_UNIT (LENGTH_MEASURE( 1.000000000000000082E-05 ), #149, 'distance_accuracy_value', 'NONE');
#54 = COORDINATED_UNIVERSAL_TIME_OFFSET ( 1, 0, .AHEAD. ) ;
#55 = EDGE_LOOP ( 'NONE', ( #185, #81, #102, #162 ) ) ;
#56 = CALENDAR_DATE ( 2023, 12, 2 ) ;
#57 = CC_DESIGN_PERSON_AND_ORGANIZATION_ASSIGNMENT ( #179, #18, ( #4 ) ) ;
#58 = APPROVAL_PERSON_ORGANIZATION ( #76, #120, #91 ) ;
#59 = APPLICATION_PROTOCOL_DEFINITION ( 'international standard', 'config_control_design', 1994, #66 ) ;
#60 = APPROVAL_DATE_TIME ( #1, #198 ) ;
#61 = ADVANCED_FACE ( 'NONE', ( #206 ), #37, .T. ) ;
#62 = EDGE_LOOP ( 'NONE', ( #98, #157 ) ) ;
#63 = DIRECTION ( 'NONE',  ( -0.000000000000000000, -0.000000000000000000, -1.000000000000000000 ) ) ;
#64 = LOCAL_TIME ( 11, 54, 8.000000000000000000, #158 ) ;
#65 = CARTESIAN_POINT ( 'NONE',  ( 0.000000000000000000, 0.000000000000000000, 800.0000000000000000 ) ) ;
#66 = APPLICATION_CONTEXT ( 'configuration controlled 3d designs of mechanical parts and assemblies' ) ;
#67 = FACE_BOUND ( 'NONE', #100, .T. ) ;
#68 = LINE ( 'NONE', #168, #139 ) ;
#69 = FACE_OUTER_BOUND ( 'NONE', #62, .T. ) ;
#70 = DIRECTION ( 'NONE',  ( 0.000000000000000000, 0.000000000000000000, 1.000000000000000000 ) ) ;
#71 = ADVANCED_FACE ( 'NONE', ( #6 ), #41, .T. ) ;
#72 = ORGANIZATION ( 'NEURÈENÝ', 'NEURÈENÝ', '' ) ;
#73 = DIRECTION ( 'NONE',  ( -1.000000000000000000, 0.000000000000000000, 0.000000000000000000 ) ) ;
#74 = CARTESIAN_POINT ( 'NONE',  ( 9.000000000000000000, 1.102182119232617714E-15, 7.000000000000000000 ) ) ;
#75 = AXIS2_PLACEMENT_3D ( 'NONE', #9, #153, #228 ) ;
#76 = PERSON_AND_ORGANIZATION ( #251, #72 ) ;
#77 = PERSON_AND_ORGANIZATION_ROLE ( 'design_supplier' ) ;
#78 = ORIENTED_EDGE ( 'NONE', *, *, #225, .F. ) ;
#79 = ORIENTED_EDGE ( 'NONE', *, *, #137, .F. ) ;
#80 = VERTEX_POINT ( 'NONE', #247 ) ;
#81 = ORIENTED_EDGE ( 'NONE', *, *, #19, .F. ) ;
#82 = VECTOR ( 'NONE', #147, 1000.000000000000000 ) ;
#83 = EDGE_LOOP ( 'NONE', ( #3, #25, #44, #219 ) ) ;
#84 = CC_DESIGN_PERSON_AND_ORGANIZATION_ASSIGNMENT ( #199, #17, ( #122 ) ) ;
#85 = CARTESIAN_POINT ( 'NONE',  ( -9.000000000000000000, 0.000000000000000000, 0.000000000000000000 ) ) ;
#86 = CARTESIAN_POINT ( 'NONE',  ( 9.000000000000000000, 1.102182119232617714E-15, 0.000000000000000000 ) ) ;
#87 = PRODUCT_DEFINITION_SHAPE ( 'NONE', 'NONE',  #229 ) ;
#88 = LINE ( 'NONE', #74, #106 ) ;
#89 = CARTESIAN_POINT ( 'NONE',  ( -6.250000000000000000, 0.000000000000000000, 800.0000000000000000 ) ) ;
#90 = ADVANCED_FACE ( 'NONE', ( #67, #167 ), #204, .T. ) ;
#91 = APPROVAL_ROLE ( '' ) ;
#92 = VERTEX_POINT ( 'NONE', #143 ) ;
#93 = AXIS2_PLACEMENT_3D ( 'NONE', #241, #222, #20 ) ;
#94 = LOCAL_TIME ( 11, 54, 8.000000000000000000, #97 ) ;
#95 = SECURITY_CLASSIFICATION_LEVEL ( 'unclassified' ) ;
#96 = CIRCLE ( 'NONE', #190, 6.250000000000000000 ) ;
#97 = COORDINATED_UNIVERSAL_TIME_OFFSET ( 1, 0, .AHEAD. ) ;
#98 = ORIENTED_EDGE ( 'NONE', *, *, #38, .F. ) ;
#99 = VERTEX_POINT ( 'NONE', #23 ) ;
#100 = EDGE_LOOP ( 'NONE', ( #79, #14 ) ) ;
#101 = EDGE_CURVE ( 'NONE', #155, #40, #140, .T. ) ;
#102 = ORIENTED_EDGE ( 'NONE', *, *, #221, .T. ) ;
#103 = DIRECTION ( 'NONE',  ( 0.000000000000000000, 0.000000000000000000, 1.000000000000000000 ) ) ;
#104 = CARTESIAN_POINT ( 'NONE',  ( 0.000000000000000000, 0.000000000000000000, 7.000000000000000000 ) ) ;
#105 = PRODUCT_DEFINITION_FORMATION_WITH_SPECIFIED_SOURCE ( 'LIBOVOLNÝ', '', #122, .NOT_KNOWN. ) ;
#106 = VECTOR ( 'NONE', #107, 1000.000000000000000 ) ;
#107 = DIRECTION ( 'NONE',  ( -0.000000000000000000, -0.000000000000000000, -1.000000000000000000 ) ) ;
#108 = DIRECTION ( 'NONE',  ( 1.000000000000000000, 0.000000000000000000, 0.000000000000000000 ) ) ;
#109 =( NAMED_UNIT ( * ) PLANE_ANGLE_UNIT ( ) SI_UNIT ( $, .RADIAN. ) );
#110 = DESIGN_CONTEXT ( 'detailed design', #66, 'design' ) ;
#111 = APPROVAL_ROLE ( '' ) ;
#112 = ORIENTED_EDGE ( 'NONE', *, *, #38, .T. ) ;
#113 = APPROVAL_DATE_TIME ( #36, #13 ) ;
#114 = CIRCLE ( 'NONE', #5, 6.250000000000000000 ) ;
#115 = DIRECTION ( 'NONE',  ( -0.000000000000000000, -0.000000000000000000, -1.000000000000000000 ) ) ;
#116 = VERTEX_POINT ( 'NONE', #89 ) ;
#117 = DIRECTION ( 'NONE',  ( -1.000000000000000000, 0.000000000000000000, 0.000000000000000000 ) ) ;
#118 = DIRECTION ( 'NONE',  ( 1.000000000000000000, 0.000000000000000000, 0.000000000000000000 ) ) ;
#119 = ORIENTED_EDGE ( 'NONE', *, *, #208, .F. ) ;
#120 = APPROVAL ( #35, 'NEURÈENÝ' ) ;
#121 = LINE ( 'NONE', #172, #197 ) ;
#122 = PRODUCT ( '3db0', '3db0', '', ( #220 ) ) ;
#123 = DIRECTION ( 'NONE',  ( 1.000000000000000000, 0.000000000000000000, -0.000000000000000000 ) ) ;
#124 = CLOSED_SHELL ( 'NONE', ( #29, #215, #71, #90, #145, #61, #246 ) ) ;
#125 = AXIS2_PLACEMENT_3D ( 'NONE', #52, #171, #73 ) ;
#126 = CARTESIAN_POINT ( 'NONE',  ( 0.000000000000000000, 0.000000000000000000, 800.0000000000000000 ) ) ;
#127 = APPLICATION_CONTEXT ( 'configuration controlled 3d designs of mechanical parts and assemblies' ) ;
#128 = CARTESIAN_POINT ( 'NONE',  ( 0.000000000000000000, 0.000000000000000000, 0.000000000000000000 ) ) ;
#129 = DIRECTION ( 'NONE',  ( 0.000000000000000000, 0.000000000000000000, 1.000000000000000000 ) ) ;
#130 = DATE_TIME_ROLE ( 'creation_date' ) ;
#131 = EDGE_LOOP ( 'NONE', ( #78, #248, #195, #237 ) ) ;
#132 = CC_DESIGN_PERSON_AND_ORGANIZATION_ASSIGNMENT ( #33, #77, ( #105 ) ) ;
#133 = CALENDAR_DATE ( 2023, 12, 2 ) ;
#134 = DATE_AND_TIME ( #214, #193 ) ;
#135 = DATE_AND_TIME ( #159, #94 ) ;
#136 = ADVANCED_BREP_SHAPE_REPRESENTATION ( '3db0', ( #148, #182 ), #160 ) ;
#137 = EDGE_CURVE ( 'NONE', #7, #92, #96, .T. ) ;
#138 = PERSON_AND_ORGANIZATION ( #251, #72 ) ;
#139 = VECTOR ( 'NONE', #141, 1000.000000000000000 ) ;
#140 = CIRCLE ( 'NONE', #243, 9.000000000000000000 ) ;
#141 = DIRECTION ( 'NONE',  ( -0.000000000000000000, -0.000000000000000000, -1.000000000000000000 ) ) ;
#142 = FACE_OUTER_BOUND ( 'NONE', #83, .T. ) ;
#143 = CARTESIAN_POINT ( 'NONE',  ( 6.250000000000000000, 7.654042494670957606E-16, 7.000000000000000000 ) ) ;
#144 = DIRECTION ( 'NONE',  ( 0.000000000000000000, 0.000000000000000000, 1.000000000000000000 ) ) ;
#145 = ADVANCED_FACE ( 'NONE', ( #69 ), #174, .F. ) ;
#146 = CARTESIAN_POINT ( 'NONE',  ( 9.000000000000000000, 1.102182119232617714E-15, 7.000000000000000000 ) ) ;
#147 = DIRECTION ( 'NONE',  ( -0.000000000000000000, -0.000000000000000000, -1.000000000000000000 ) ) ;
#148 = MANIFOLD_SOLID_BREP ( 'Pøidat vysunutím3', #124 ) ;
#149 =( LENGTH_UNIT ( ) NAMED_UNIT ( * ) SI_UNIT ( .MILLI., .METRE. ) );
#150 = AXIS2_PLACEMENT_3D ( 'NONE', #128, #70, #191 ) ;
#151 = APPROVAL_PERSON_ORGANIZATION ( #218, #13, #111 ) ;
#152 = CARTESIAN_POINT ( 'NONE',  ( 0.000000000000000000, 0.000000000000000000, 7.000000000000000000 ) ) ;
#153 = DIRECTION ( 'NONE',  ( 0.000000000000000000, 0.000000000000000000, 1.000000000000000000 ) ) ;
#154 = CC_DESIGN_DATE_AND_TIME_ASSIGNMENT ( #216, #130, ( #229 ) ) ;
#155 = VERTEX_POINT ( 'NONE', #86 ) ;
#156 = COORDINATED_UNIVERSAL_TIME_OFFSET ( 1, 0, .AHEAD. ) ;
#157 = ORIENTED_EDGE ( 'NONE', *, *, #101, .F. ) ;
#158 = COORDINATED_UNIVERSAL_TIME_OFFSET ( 1, 0, .AHEAD. ) ;
#159 = CALENDAR_DATE ( 2023, 12, 2 ) ;
#160 =( GEOMETRIC_REPRESENTATION_CONTEXT ( 3 ) GLOBAL_UNCERTAINTY_ASSIGNED_CONTEXT ( ( #53 ) ) GLOBAL_UNIT_ASSIGNED_CONTEXT ( ( #149, #109, #230 ) ) REPRESENTATION_CONTEXT ( 'NONE', 'WORKASPACE' ) );
#161 = DATE_TIME_ROLE ( 'classification_date' ) ;
#162 = ORIENTED_EDGE ( 'NONE', *, *, #137, .T. ) ;
#163 = CC_DESIGN_DATE_AND_TIME_ASSIGNMENT ( #134, #161, ( #4 ) ) ;
#164 = VERTEX_POINT ( 'NONE', #146 ) ;
#165 = AXIS2_PLACEMENT_3D ( 'NONE', #12, #129, #213 ) ;
#166 = ORIENTED_EDGE ( 'NONE', *, *, #225, .T. ) ;
#167 = FACE_OUTER_BOUND ( 'NONE', #42, .T. ) ;
#168 = CARTESIAN_POINT ( 'NONE',  ( 6.250000000000000000, 7.654042494670957606E-16, 800.0000000000000000 ) ) ;
#169 = CYLINDRICAL_SURFACE ( 'NONE', #125, 9.000000000000000000 ) ;
#170 = AXIS2_PLACEMENT_3D ( 'NONE', #203, #22, #117 ) ;
#171 = DIRECTION ( 'NONE',  ( -0.000000000000000000, -0.000000000000000000, -1.000000000000000000 ) ) ;
#172 = CARTESIAN_POINT ( 'NONE',  ( -9.000000000000000000, 0.000000000000000000, 7.000000000000000000 ) ) ;
#173 = APPROVAL_PERSON_ORGANIZATION ( #138, #198, #239 ) ;
#174 = PLANE ( 'NONE',  #150 ) ;
#175 = CC_DESIGN_PERSON_AND_ORGANIZATION_ASSIGNMENT ( #196, #255, ( #229 ) ) ;
#176 = APPROVAL_STATUS ( 'not_yet_approved' ) ;
#177 = ORIENTED_EDGE ( 'NONE', *, *, #201, .T. ) ;
#178 = CIRCLE ( 'NONE', #165, 9.000000000000000000 ) ;
#179 = PERSON_AND_ORGANIZATION ( #251, #72 ) ;
#180 = CALENDAR_DATE ( 2023, 12, 2 ) ;
#181 = COORDINATED_UNIVERSAL_TIME_OFFSET ( 1, 0, .AHEAD. ) ;
#182 = AXIS2_PLACEMENT_3D ( 'NONE', #210, #51, #30 ) ;
#183 = EDGE_LOOP ( 'NONE', ( #24, #177 ) ) ;
#184 = ORIENTED_EDGE ( 'NONE', *, *, #234, .T. ) ;
#185 = ORIENTED_EDGE ( 'NONE', *, *, #26, .F. ) ;
#186 = AXIS2_PLACEMENT_3D ( 'NONE', #152, #233, #212 ) ;
#187 = CARTESIAN_POINT ( 'NONE',  ( 0.000000000000000000, 0.000000000000000000, 800.0000000000000000 ) ) ;
#188 = CYLINDRICAL_SURFACE ( 'NONE', #27, 6.250000000000000000 ) ;
#189 = DIRECTION ( 'NONE',  ( 1.000000000000000000, 0.000000000000000000, -0.000000000000000000 ) ) ;
#190 = AXIS2_PLACEMENT_3D ( 'NONE', #46, #10, #192 ) ;
#191 = DIRECTION ( 'NONE',  ( 1.000000000000000000, 0.000000000000000000, -0.000000000000000000 ) ) ;
#192 = DIRECTION ( 'NONE',  ( 1.000000000000000000, 0.000000000000000000, 0.000000000000000000 ) ) ;
#193 = LOCAL_TIME ( 11, 54, 8.000000000000000000, #181 ) ;
#194 = APPROVAL_DATE_TIME ( #135, #120 ) ;
#195 = ORIENTED_EDGE ( 'NONE', *, *, #101, .T. ) ;
#196 = PERSON_AND_ORGANIZATION ( #251, #72 ) ;
#197 = VECTOR ( 'NONE', #28, 1000.000000000000000 ) ;
#198 = APPROVAL ( #236, 'NEURÈENÝ' ) ;
#199 = PERSON_AND_ORGANIZATION ( #251, #72 ) ;
#200 = PERSON_AND_ORGANIZATION_ROLE ( 'creator' ) ;
#201 = EDGE_CURVE ( 'NONE', #80, #116, #34, .T. ) ;
#202 = DIRECTION ( 'NONE',  ( 0.000000000000000000, 0.000000000000000000, 1.000000000000000000 ) ) ;
#203 = CARTESIAN_POINT ( 'NONE',  ( 0.000000000000000000, 0.000000000000000000, 7.000000000000000000 ) ) ;
#204 = PLANE ( 'NONE',  #39 ) ;
#205 = CARTESIAN_POINT ( 'NONE',  ( -6.250000000000000000, 0.000000000000000000, 7.000000000000000000 ) ) ;
#206 = FACE_OUTER_BOUND ( 'NONE', #55, .T. ) ;
#207 = FACE_OUTER_BOUND ( 'NONE', #183, .T. ) ;
#208 = EDGE_CURVE ( 'NONE', #164, #155, #88, .T. ) ;
#209 = CIRCLE ( 'NONE', #93, 9.000000000000000000 ) ;
#210 = CARTESIAN_POINT ( 'NONE',  ( 0.000000000000000000, 0.000000000000000000, 0.000000000000000000 ) ) ;
#211 = DIRECTION ( 'NONE',  ( 0.000000000000000000, 0.000000000000000000, 1.000000000000000000 ) ) ;
#212 = DIRECTION ( 'NONE',  ( 1.000000000000000000, 0.000000000000000000, 0.000000000000000000 ) ) ;
#213 = DIRECTION ( 'NONE',  ( 1.000000000000000000, 0.000000000000000000, 0.000000000000000000 ) ) ;
#214 = CALENDAR_DATE ( 2023, 12, 2 ) ;
#215 = ADVANCED_FACE ( 'NONE', ( #45 ), #169, .T. ) ;
#216 = DATE_AND_TIME ( #180, #16 ) ;
#217 = CC_DESIGN_SECURITY_CLASSIFICATION ( #4, ( #105 ) ) ;
#218 = PERSON_AND_ORGANIZATION ( #251, #72 ) ;
#219 = ORIENTED_EDGE ( 'NONE', *, *, #221, .F. ) ;
#220 = MECHANICAL_CONTEXT ( 'NONE', #127, 'mechanical' ) ;
#221 = EDGE_CURVE ( 'NONE', #116, #7, #252, .T. ) ;
#222 = DIRECTION ( 'NONE',  ( 0.000000000000000000, 0.000000000000000000, 1.000000000000000000 ) ) ;
#223 = DIRECTION ( 'NONE',  ( -1.000000000000000000, 0.000000000000000000, 0.000000000000000000 ) ) ;
#224 = DIRECTION ( 'NONE',  ( -1.000000000000000000, 0.000000000000000000, 0.000000000000000000 ) ) ;
#225 = EDGE_CURVE ( 'NONE', #164, #99, #178, .T. ) ;
#226 = CARTESIAN_POINT ( 'NONE',  ( 0.000000000000000000, 0.000000000000000000, 0.000000000000000000 ) ) ;
#227 = ORIENTED_EDGE ( 'NONE', *, *, #234, .F. ) ;
#228 = DIRECTION ( 'NONE',  ( 1.000000000000000000, 0.000000000000000000, 0.000000000000000000 ) ) ;
#229 = PRODUCT_DEFINITION ( 'NEZNÁMÝ', '', #105, #110 ) ;
#230 =( NAMED_UNIT ( * ) SI_UNIT ( $, .STERADIAN. ) SOLID_ANGLE_UNIT ( ) );
#231 = AXIS2_PLACEMENT_3D ( 'NONE', #65, #103, #118 ) ;
#232 = AXIS2_PLACEMENT_3D ( 'NONE', #126, #211, #123 ) ;
#233 = DIRECTION ( 'NONE',  ( 0.000000000000000000, 0.000000000000000000, 1.000000000000000000 ) ) ;
#234 = EDGE_CURVE ( 'NONE', #99, #164, #50, .T. ) ;
#235 = PLANE ( 'NONE',  #232 ) ;
#236 = APPROVAL_STATUS ( 'not_yet_approved' ) ;
#237 = ORIENTED_EDGE ( 'NONE', *, *, #240, .F. ) ;
#238 = PERSON_AND_ORGANIZATION ( #251, #72 ) ;
#239 = APPROVAL_ROLE ( '' ) ;
#240 = EDGE_CURVE ( 'NONE', #99, #40, #121, .T. ) ;
#241 = CARTESIAN_POINT ( 'NONE',  ( 0.000000000000000000, 0.000000000000000000, 0.000000000000000000 ) ) ;
#242 = CARTESIAN_POINT ( 'NONE',  ( 0.000000000000000000, 0.000000000000000000, 800.0000000000000000 ) ) ;
#243 = AXIS2_PLACEMENT_3D ( 'NONE', #226, #202, #108 ) ;
#244 = CC_DESIGN_APPROVAL ( #198, ( #4 ) ) ;
#245 = EDGE_LOOP ( 'NONE', ( #119, #227, #2, #112 ) ) ;
#246 = ADVANCED_FACE ( 'NONE', ( #207 ), #235, .T. ) ;
#247 = CARTESIAN_POINT ( 'NONE',  ( 6.250000000000000000, 7.654042494670957606E-16, 800.0000000000000000 ) ) ;
#248 = ORIENTED_EDGE ( 'NONE', *, *, #208, .T. ) ;
#249 = CARTESIAN_POINT ( 'NONE',  ( -6.250000000000000000, 0.000000000000000000, 800.0000000000000000 ) ) ;
#250 = CARTESIAN_POINT ( 'NONE',  ( 0.000000000000000000, 0.000000000000000000, 7.000000000000000000 ) ) ;
#251 = PERSON ( 'NEURÈENÝ', 'NEURÈENÝ', 'NEURÈENÝ', ('NEURÈENÝ'), ('NEURÈENÝ'), ('NEURÈENÝ') ) ;
#252 = LINE ( 'NONE', #249, #82 ) ;
#253 = CIRCLE ( 'NONE', #231, 6.250000000000000000 ) ;
#254 = EDGE_CURVE ( 'NONE', #92, #7, #114, .T. ) ;
#255 = PERSON_AND_ORGANIZATION_ROLE ( 'creator' ) ;
ENDSEC;
END-ISO-10303-21;
