ISO-10303-21;
HEADER;
FILE_DESCRIPTION (( 'STEP AP203' ),
    '1' );
FILE_NAME ('5d6a.STEP',
    '2023-02-12T10:05:58',
    ( '' ),
    ( '' ),
    'SwSTEP 2.0',
    'SolidWorks 2019',
    '' );
FILE_SCHEMA (( 'CONFIG_CONTROL_DESIGN' ));
ENDSEC;

DATA;
#1 = COORDINATED_UNIVERSAL_TIME_OFFSET ( 1, 0, .AHEAD. ) ;
#2 = COORDINATED_UNIVERSAL_TIME_OFFSET ( 1, 0, .AHEAD. ) ;
#3 = AXIS2_PLACEMENT_3D ( 'NONE', #49, #122, #206 ) ;
#4 = PERSON_AND_ORGANIZATION ( #236, #216 ) ;
#5 = ADVANCED_FACE ( 'NONE', ( #202 ), #119, .T. ) ;
#6 = ADVANCED_BREP_SHAPE_REPRESENTATION ( '5d6a', ( #233, #41 ), #52 ) ;
#7 = DIRECTION ( 'NONE',  ( 1.000000000000000000, 0.000000000000000000, 0.000000000000000000 ) ) ;
#8 = CARTESIAN_POINT ( 'NONE',  ( 16.00000000000000000, 1.959434878635765131E-15, 10.00000000000000000 ) ) ;
#9 = ADVANCED_FACE ( 'NONE', ( #62, #46 ), #162, .T. ) ;
#10 = ORIENTED_EDGE ( 'NONE', *, *, #218, .T. ) ;
#11 = VERTEX_POINT ( 'NONE', #116 ) ;
#12 = AXIS2_PLACEMENT_3D ( 'NONE', #178, #174, #7 ) ;
#13 = VERTEX_POINT ( 'NONE', #137 ) ;
#14 = APPROVAL ( #109, 'NEURÈENÝ' ) ;
#15 = DIRECTION ( 'NONE',  ( -0.000000000000000000, -0.000000000000000000, -1.000000000000000000 ) ) ;
#16 = LINE ( 'NONE', #78, #243 ) ;
#17 = CARTESIAN_POINT ( 'NONE',  ( 0.000000000000000000, 0.000000000000000000, 10.00000000000000000 ) ) ;
#18 = FACE_OUTER_BOUND ( 'NONE', #222, .T. ) ;
#19 = PERSON_AND_ORGANIZATION_ROLE ( 'creator' ) ;
#20 = PERSON_AND_ORGANIZATION ( #236, #216 ) ;
#21 = EDGE_LOOP ( 'NONE', ( #240, #77 ) ) ;
#22 = DATE_AND_TIME ( #194, #175 ) ;
#23 = ORIENTED_EDGE ( 'NONE', *, *, #171, .F. ) ;
#24 = CIRCLE ( 'NONE', #159, 20.00000000000000000 ) ;
#25 = ADVANCED_FACE ( 'NONE', ( #224 ), #220, .T. ) ;
#26 = DIRECTION ( 'NONE',  ( 0.000000000000000000, 0.000000000000000000, 1.000000000000000000 ) ) ;
#27 = APPROVAL_PERSON_ORGANIZATION ( #133, #14, #255 ) ;
#28 = CARTESIAN_POINT ( 'NONE',  ( 0.000000000000000000, 0.000000000000000000, 1000.000000000000000 ) ) ;
#29 = DIRECTION ( 'NONE',  ( 0.000000000000000000, 0.000000000000000000, 1.000000000000000000 ) ) ;
#30 = CARTESIAN_POINT ( 'NONE',  ( 0.000000000000000000, 0.000000000000000000, 10.00000000000000000 ) ) ;
#31 = SECURITY_CLASSIFICATION ( '', '', #212 ) ;
#32 = VERTEX_POINT ( 'NONE', #140 ) ;
#33 = CARTESIAN_POINT ( 'NONE',  ( 0.000000000000000000, 0.000000000000000000, 0.000000000000000000 ) ) ;
#34 = DIRECTION ( 'NONE',  ( 0.000000000000000000, 0.000000000000000000, 1.000000000000000000 ) ) ;
#35 = AXIS2_PLACEMENT_3D ( 'NONE', #33, #126, #144 ) ;
#36 = DIRECTION ( 'NONE',  ( 0.000000000000000000, 0.000000000000000000, 1.000000000000000000 ) ) ;
#37 = DIRECTION ( 'NONE',  ( -1.000000000000000000, 0.000000000000000000, 0.000000000000000000 ) ) ;
#38 = DIRECTION ( 'NONE',  ( 0.000000000000000000, 0.000000000000000000, 1.000000000000000000 ) ) ;
#39 = PERSON_AND_ORGANIZATION ( #236, #216 ) ;
#40 = COORDINATED_UNIVERSAL_TIME_OFFSET ( 1, 0, .AHEAD. ) ;
#41 = AXIS2_PLACEMENT_3D ( 'NONE', #113, #38, #195 ) ;
#42 = EDGE_LOOP ( 'NONE', ( #63, #118 ) ) ;
#43 = DIRECTION ( 'NONE',  ( -0.000000000000000000, -0.000000000000000000, -1.000000000000000000 ) ) ;
#44 = ORIENTED_EDGE ( 'NONE', *, *, #214, .F. ) ;
#45 = EDGE_CURVE ( 'NONE', #32, #11, #180, .T. ) ;
#46 = FACE_OUTER_BOUND ( 'NONE', #42, .T. ) ;
#47 = DIRECTION ( 'NONE',  ( 1.000000000000000000, 0.000000000000000000, 0.000000000000000000 ) ) ;
#48 = VECTOR ( 'NONE', #15, 1000.000000000000000 ) ;
#49 = CARTESIAN_POINT ( 'NONE',  ( 0.000000000000000000, 0.000000000000000000, 1000.000000000000000 ) ) ;
#50 = CC_DESIGN_DATE_AND_TIME_ASSIGNMENT ( #213, #197, ( #31 ) ) ;
#51 = CARTESIAN_POINT ( 'NONE',  ( 0.000000000000000000, 0.000000000000000000, 10.00000000000000000 ) ) ;
#52 =( GEOMETRIC_REPRESENTATION_CONTEXT ( 3 ) GLOBAL_UNCERTAINTY_ASSIGNED_CONTEXT ( ( #251 ) ) GLOBAL_UNIT_ASSIGNED_CONTEXT ( ( #227, #123, #103 ) ) REPRESENTATION_CONTEXT ( 'NONE', 'WORKASPACE' ) );
#53 = DIRECTION ( 'NONE',  ( 1.000000000000000000, 0.000000000000000000, 0.000000000000000000 ) ) ;
#54 = EDGE_CURVE ( 'NONE', #13, #201, #76, .T. ) ;
#55 = CLOSED_SHELL ( 'NONE', ( #246, #189, #229, #9, #124, #25, #5 ) ) ;
#56 = APPROVAL_DATE_TIME ( #234, #142 ) ;
#57 = PERSON_AND_ORGANIZATION_ROLE ( 'design_supplier' ) ;
#58 = ORIENTED_EDGE ( 'NONE', *, *, #239, .T. ) ;
#59 = EDGE_LOOP ( 'NONE', ( #86, #73, #10, #136 ) ) ;
#60 = DIRECTION ( 'NONE',  ( 1.000000000000000000, 0.000000000000000000, 0.000000000000000000 ) ) ;
#61 = CC_DESIGN_PERSON_AND_ORGANIZATION_ASSIGNMENT ( #85, #87, ( #111 ) ) ;
#62 = FACE_BOUND ( 'NONE', #135, .T. ) ;
#63 = ORIENTED_EDGE ( 'NONE', *, *, #45, .T. ) ;
#64 = DIRECTION ( 'NONE',  ( -1.000000000000000000, 0.000000000000000000, 0.000000000000000000 ) ) ;
#65 = DESIGN_CONTEXT ( 'detailed design', #149, 'design' ) ;
#66 = PLANE ( 'NONE',  #35 ) ;
#67 = CALENDAR_DATE ( 2023, 12, 2 ) ;
#68 = PERSON_AND_ORGANIZATION ( #236, #216 ) ;
#69 = SHAPE_DEFINITION_REPRESENTATION ( #72, #6 ) ;
#70 = APPROVAL_DATE_TIME ( #22, #138 ) ;
#71 = ORIENTED_EDGE ( 'NONE', *, *, #128, .T. ) ;
#72 = PRODUCT_DEFINITION_SHAPE ( 'NONE', 'NONE',  #193 ) ;
#73 = ORIENTED_EDGE ( 'NONE', *, *, #45, .F. ) ;
#74 = DIRECTION ( 'NONE',  ( 1.000000000000000000, 0.000000000000000000, 0.000000000000000000 ) ) ;
#75 = CARTESIAN_POINT ( 'NONE',  ( 0.000000000000000000, 0.000000000000000000, 1000.000000000000000 ) ) ;
#76 = CIRCLE ( 'NONE', #139, 16.00000000000000000 ) ;
#77 = ORIENTED_EDGE ( 'NONE', *, *, #82, .T. ) ;
#78 = CARTESIAN_POINT ( 'NONE',  ( 16.00000000000000000, 1.959434878635765131E-15, 1000.000000000000000 ) ) ;
#79 = LOCAL_TIME ( 11, 5, 58.00000000000000000, #130 ) ;
#80 = DIRECTION ( 'NONE',  ( -0.000000000000000000, -0.000000000000000000, -1.000000000000000000 ) ) ;
#81 = DIRECTION ( 'NONE',  ( 0.000000000000000000, 0.000000000000000000, 1.000000000000000000 ) ) ;
#82 = EDGE_CURVE ( 'NONE', #201, #13, #155, .T. ) ;
#83 = CARTESIAN_POINT ( 'NONE',  ( 0.000000000000000000, 0.000000000000000000, 10.00000000000000000 ) ) ;
#84 = PERSON_AND_ORGANIZATION_ROLE ( 'classification_officer' ) ;
#85 = PERSON_AND_ORGANIZATION ( #236, #216 ) ;
#86 = ORIENTED_EDGE ( 'NONE', *, *, #207, .F. ) ;
#87 = PERSON_AND_ORGANIZATION_ROLE ( 'design_owner' ) ;
#88 = DATE_TIME_ROLE ( 'creation_date' ) ;
#89 = CC_DESIGN_PERSON_AND_ORGANIZATION_ASSIGNMENT ( #20, #19, ( #204 ) ) ;
#90 = ORIENTED_EDGE ( 'NONE', *, *, #128, .F. ) ;
#91 = ORIENTED_EDGE ( 'NONE', *, *, #218, .F. ) ;
#92 = PRODUCT_RELATED_PRODUCT_CATEGORY ( 'detail', '', ( #111 ) ) ;
#93 = LINE ( 'NONE', #158, #48 ) ;
#94 = DIRECTION ( 'NONE',  ( 0.000000000000000000, 0.000000000000000000, 1.000000000000000000 ) ) ;
#95 = CC_DESIGN_SECURITY_CLASSIFICATION ( #31, ( #204 ) ) ;
#96 = APPROVAL_PERSON_ORGANIZATION ( #4, #138, #152 ) ;
#97 = VERTEX_POINT ( 'NONE', #8 ) ;
#98 = VECTOR ( 'NONE', #80, 1000.000000000000000 ) ;
#99 = DIRECTION ( 'NONE',  ( -0.000000000000000000, -0.000000000000000000, -1.000000000000000000 ) ) ;
#100 = APPLICATION_CONTEXT ( 'configuration controlled 3d designs of mechanical parts and assemblies' ) ;
#101 = CARTESIAN_POINT ( 'NONE',  ( 0.000000000000000000, 0.000000000000000000, 10.00000000000000000 ) ) ;
#102 = LOCAL_TIME ( 11, 5, 58.00000000000000000, #40 ) ;
#103 =( NAMED_UNIT ( * ) SI_UNIT ( $, .STERADIAN. ) SOLID_ANGLE_UNIT ( ) );
#104 = AXIS2_PLACEMENT_3D ( 'NONE', #157, #29, #74 ) ;
#105 = CIRCLE ( 'NONE', #199, 20.00000000000000000 ) ;
#106 = EDGE_CURVE ( 'NONE', #13, #198, #93, .T. ) ;
#107 = DIRECTION ( 'NONE',  ( -0.000000000000000000, -0.000000000000000000, -1.000000000000000000 ) ) ;
#108 = CARTESIAN_POINT ( 'NONE',  ( 0.000000000000000000, 0.000000000000000000, 0.000000000000000000 ) ) ;
#109 = APPROVAL_STATUS ( 'not_yet_approved' ) ;
#110 = APPROVAL_ROLE ( '' ) ;
#111 = PRODUCT ( '5d6a', '5d6a', '', ( #232 ) ) ;
#112 = APPROVAL_DATE_TIME ( #131, #14 ) ;
#113 = CARTESIAN_POINT ( 'NONE',  ( 0.000000000000000000, 0.000000000000000000, 0.000000000000000000 ) ) ;
#114 = LOCAL_TIME ( 11, 5, 58.00000000000000000, #1 ) ;
#115 = VERTEX_POINT ( 'NONE', #166 ) ;
#116 = CARTESIAN_POINT ( 'NONE',  ( 20.00000000000000000, 2.449293598294706513E-15, 10.00000000000000000 ) ) ;
#117 = AXIS2_PLACEMENT_3D ( 'NONE', #83, #252, #64 ) ;
#118 = ORIENTED_EDGE ( 'NONE', *, *, #250, .T. ) ;
#119 = PLANE ( 'NONE',  #185 ) ;
#120 = EDGE_LOOP ( 'NONE', ( #141, #90 ) ) ;
#121 = CARTESIAN_POINT ( 'NONE',  ( -16.00000000000000000, 0.000000000000000000, 10.00000000000000000 ) ) ;
#122 = DIRECTION ( 'NONE',  ( -0.000000000000000000, -0.000000000000000000, -1.000000000000000000 ) ) ;
#123 =( NAMED_UNIT ( * ) PLANE_ANGLE_UNIT ( ) SI_UNIT ( $, .RADIAN. ) );
#124 = ADVANCED_FACE ( 'NONE', ( #254 ), #66, .F. ) ;
#125 = LINE ( 'NONE', #205, #98 ) ;
#126 = DIRECTION ( 'NONE',  ( 0.000000000000000000, 0.000000000000000000, 1.000000000000000000 ) ) ;
#127 = APPROVAL_STATUS ( 'not_yet_approved' ) ;
#128 = EDGE_CURVE ( 'NONE', #176, #115, #145, .T. ) ;
#129 = VECTOR ( 'NONE', #99, 1000.000000000000000 ) ;
#130 = COORDINATED_UNIVERSAL_TIME_OFFSET ( 1, 0, .AHEAD. ) ;
#131 = DATE_AND_TIME ( #67, #102 ) ;
#132 = CC_DESIGN_DATE_AND_TIME_ASSIGNMENT ( #169, #88, ( #193 ) ) ;
#133 = PERSON_AND_ORGANIZATION ( #236, #216 ) ;
#134 = LOCAL_TIME ( 11, 5, 58.00000000000000000, #238 ) ;
#135 = EDGE_LOOP ( 'NONE', ( #44, #192 ) ) ;
#136 = ORIENTED_EDGE ( 'NONE', *, *, #184, .T. ) ;
#137 = CARTESIAN_POINT ( 'NONE',  ( -16.00000000000000000, 0.000000000000000000, 1000.000000000000000 ) ) ;
#138 = APPROVAL ( #191, 'NEURÈENÝ' ) ;
#139 = AXIS2_PLACEMENT_3D ( 'NONE', #28, #26, #60 ) ;
#140 = CARTESIAN_POINT ( 'NONE',  ( -20.00000000000000000, 0.000000000000000000, 10.00000000000000000 ) ) ;
#141 = ORIENTED_EDGE ( 'NONE', *, *, #184, .F. ) ;
#142 = APPROVAL ( #127, 'NEURÈENÝ' ) ;
#143 = CARTESIAN_POINT ( 'NONE',  ( 0.000000000000000000, 0.000000000000000000, 1000.000000000000000 ) ) ;
#144 = DIRECTION ( 'NONE',  ( 1.000000000000000000, 0.000000000000000000, -0.000000000000000000 ) ) ;
#145 = CIRCLE ( 'NONE', #217, 20.00000000000000000 ) ;
#146 = CARTESIAN_POINT ( 'NONE',  ( 0.000000000000000000, 0.000000000000000000, 10.00000000000000000 ) ) ;
#147 = CC_DESIGN_PERSON_AND_ORGANIZATION_ASSIGNMENT ( #170, #57, ( #204 ) ) ;
#148 = CYLINDRICAL_SURFACE ( 'NONE', #248, 20.00000000000000000 ) ;
#149 = APPLICATION_CONTEXT ( 'configuration controlled 3d designs of mechanical parts and assemblies' ) ;
#150 = AXIS2_PLACEMENT_3D ( 'NONE', #143, #43, #200 ) ;
#151 = CARTESIAN_POINT ( 'NONE',  ( 0.000000000000000000, 0.000000000000000000, 0.000000000000000000 ) ) ;
#152 = APPROVAL_ROLE ( '' ) ;
#153 = PERSON_AND_ORGANIZATION_ROLE ( 'creator' ) ;
#154 = PERSON_AND_ORGANIZATION ( #236, #216 ) ;
#155 = CIRCLE ( 'NONE', #12, 16.00000000000000000 ) ;
#156 = ORIENTED_EDGE ( 'NONE', *, *, #250, .F. ) ;
#157 = CARTESIAN_POINT ( 'NONE',  ( 0.000000000000000000, 0.000000000000000000, 10.00000000000000000 ) ) ;
#158 = CARTESIAN_POINT ( 'NONE',  ( -16.00000000000000000, 0.000000000000000000, 1000.000000000000000 ) ) ;
#159 = AXIS2_PLACEMENT_3D ( 'NONE', #151, #228, #47 ) ;
#160 = DIRECTION ( 'NONE',  ( 0.000000000000000000, 0.000000000000000000, 1.000000000000000000 ) ) ;
#161 = CC_DESIGN_PERSON_AND_ORGANIZATION_ASSIGNMENT ( #68, #84, ( #31 ) ) ;
#162 = PLANE ( 'NONE',  #208 ) ;
#163 = CARTESIAN_POINT ( 'NONE',  ( 20.00000000000000000, 2.449293598294706513E-15, 0.000000000000000000 ) ) ;
#164 = CARTESIAN_POINT ( 'NONE',  ( -20.00000000000000000, 0.000000000000000000, 10.00000000000000000 ) ) ;
#165 = DIRECTION ( 'NONE',  ( 1.000000000000000000, 0.000000000000000000, 0.000000000000000000 ) ) ;
#166 = CARTESIAN_POINT ( 'NONE',  ( -20.00000000000000000, 0.000000000000000000, 0.000000000000000000 ) ) ;
#167 = CALENDAR_DATE ( 2023, 12, 2 ) ;
#168 = EDGE_LOOP ( 'NONE', ( #23, #203, #181, #244 ) ) ;
#169 = DATE_AND_TIME ( #190, #134 ) ;
#170 = PERSON_AND_ORGANIZATION ( #236, #216 ) ;
#171 = EDGE_CURVE ( 'NONE', #201, #97, #16, .T. ) ;
#172 = ORIENTED_EDGE ( 'NONE', *, *, #106, .F. ) ;
#173 = APPLICATION_PROTOCOL_DEFINITION ( 'international standard', 'config_control_design', 1994, #149 ) ;
#174 = DIRECTION ( 'NONE',  ( 0.000000000000000000, 0.000000000000000000, 1.000000000000000000 ) ) ;
#175 = LOCAL_TIME ( 11, 5, 58.00000000000000000, #2 ) ;
#176 = VERTEX_POINT ( 'NONE', #163 ) ;
#177 = ORIENTED_EDGE ( 'NONE', *, *, #171, .T. ) ;
#178 = CARTESIAN_POINT ( 'NONE',  ( 0.000000000000000000, 0.000000000000000000, 1000.000000000000000 ) ) ;
#179 = AXIS2_PLACEMENT_3D ( 'NONE', #51, #36, #211 ) ;
#180 = CIRCLE ( 'NONE', #104, 20.00000000000000000 ) ;
#181 = ORIENTED_EDGE ( 'NONE', *, *, #106, .T. ) ;
#182 = FACE_OUTER_BOUND ( 'NONE', #59, .T. ) ;
#183 = CYLINDRICAL_SURFACE ( 'NONE', #3, 16.00000000000000000 ) ;
#184 = EDGE_CURVE ( 'NONE', #115, #176, #24, .T. ) ;
#185 = AXIS2_PLACEMENT_3D ( 'NONE', #75, #160, #241 ) ;
#186 = FACE_OUTER_BOUND ( 'NONE', #242, .T. ) ;
#187 = DIRECTION ( 'NONE',  ( 1.000000000000000000, 0.000000000000000000, 0.000000000000000000 ) ) ;
#188 = DIRECTION ( 'NONE',  ( -0.000000000000000000, -0.000000000000000000, -1.000000000000000000 ) ) ;
#189 = ADVANCED_FACE ( 'NONE', ( #18 ), #148, .T. ) ;
#190 = CALENDAR_DATE ( 2023, 12, 2 ) ;
#191 = APPROVAL_STATUS ( 'not_yet_approved' ) ;
#192 = ORIENTED_EDGE ( 'NONE', *, *, #239, .F. ) ;
#193 = PRODUCT_DEFINITION ( 'NEZNÁMÝ', '', #204, #65 ) ;
#194 = CALENDAR_DATE ( 2023, 12, 2 ) ;
#195 = DIRECTION ( 'NONE',  ( 1.000000000000000000, 0.000000000000000000, 0.000000000000000000 ) ) ;
#196 = CC_DESIGN_APPROVAL ( #14, ( #31 ) ) ;
#197 = DATE_TIME_ROLE ( 'classification_date' ) ;
#198 = VERTEX_POINT ( 'NONE', #121 ) ;
#199 = AXIS2_PLACEMENT_3D ( 'NONE', #17, #81, #165 ) ;
#200 = DIRECTION ( 'NONE',  ( -1.000000000000000000, 0.000000000000000000, 0.000000000000000000 ) ) ;
#201 = VERTEX_POINT ( 'NONE', #209 ) ;
#202 = FACE_OUTER_BOUND ( 'NONE', #21, .T. ) ;
#203 = ORIENTED_EDGE ( 'NONE', *, *, #54, .F. ) ;
#204 = PRODUCT_DEFINITION_FORMATION_WITH_SPECIFIED_SOURCE ( 'LIBOVOLNÝ', '', #111, .NOT_KNOWN. ) ;
#205 = CARTESIAN_POINT ( 'NONE',  ( 20.00000000000000000, 2.449293598294706513E-15, 10.00000000000000000 ) ) ;
#206 = DIRECTION ( 'NONE',  ( -1.000000000000000000, 0.000000000000000000, 0.000000000000000000 ) ) ;
#207 = EDGE_CURVE ( 'NONE', #11, #176, #125, .T. ) ;
#208 = AXIS2_PLACEMENT_3D ( 'NONE', #30, #94, #245 ) ;
#209 = CARTESIAN_POINT ( 'NONE',  ( 16.00000000000000000, 1.959434878635765131E-15, 1000.000000000000000 ) ) ;
#210 = CC_DESIGN_PERSON_AND_ORGANIZATION_ASSIGNMENT ( #154, #153, ( #193 ) ) ;
#211 = DIRECTION ( 'NONE',  ( 1.000000000000000000, 0.000000000000000000, 0.000000000000000000 ) ) ;
#212 = SECURITY_CLASSIFICATION_LEVEL ( 'unclassified' ) ;
#213 = DATE_AND_TIME ( #167, #79 ) ;
#214 = EDGE_CURVE ( 'NONE', #198, #97, #221, .T. ) ;
#215 = APPROVAL_PERSON_ORGANIZATION ( #39, #142, #110 ) ;
#216 = ORGANIZATION ( 'NEURÈENÝ', 'NEURÈENÝ', '' ) ;
#217 = AXIS2_PLACEMENT_3D ( 'NONE', #108, #247, #53 ) ;
#218 = EDGE_CURVE ( 'NONE', #32, #115, #226, .T. ) ;
#219 = ORIENTED_EDGE ( 'NONE', *, *, #82, .F. ) ;
#220 = CYLINDRICAL_SURFACE ( 'NONE', #150, 16.00000000000000000 ) ;
#221 = CIRCLE ( 'NONE', #179, 16.00000000000000000 ) ;
#222 = EDGE_LOOP ( 'NONE', ( #156, #223, #71, #91 ) ) ;
#223 = ORIENTED_EDGE ( 'NONE', *, *, #207, .T. ) ;
#224 = FACE_OUTER_BOUND ( 'NONE', #168, .T. ) ;
#225 = CC_DESIGN_APPROVAL ( #138, ( #193 ) ) ;
#226 = LINE ( 'NONE', #164, #129 ) ;
#227 =( LENGTH_UNIT ( ) NAMED_UNIT ( * ) SI_UNIT ( .MILLI., .METRE. ) );
#228 = DIRECTION ( 'NONE',  ( 0.000000000000000000, 0.000000000000000000, 1.000000000000000000 ) ) ;
#229 = ADVANCED_FACE ( 'NONE', ( #182 ), #249, .T. ) ;
#230 = CIRCLE ( 'NONE', #235, 16.00000000000000000 ) ;
#231 = APPLICATION_PROTOCOL_DEFINITION ( 'international standard', 'config_control_design', 1994, #100 ) ;
#232 = MECHANICAL_CONTEXT ( 'NONE', #100, 'mechanical' ) ;
#233 = MANIFOLD_SOLID_BREP ( 'Pøidat vysunutím3', #55 ) ;
#234 = DATE_AND_TIME ( #237, #114 ) ;
#235 = AXIS2_PLACEMENT_3D ( 'NONE', #146, #34, #187 ) ;
#236 = PERSON ( 'NEURÈENÝ', 'NEURÈENÝ', 'NEURÈENÝ', ('NEURÈENÝ'), ('NEURÈENÝ'), ('NEURÈENÝ') ) ;
#237 = CALENDAR_DATE ( 2023, 12, 2 ) ;
#238 = COORDINATED_UNIVERSAL_TIME_OFFSET ( 1, 0, .AHEAD. ) ;
#239 = EDGE_CURVE ( 'NONE', #97, #198, #230, .T. ) ;
#240 = ORIENTED_EDGE ( 'NONE', *, *, #54, .T. ) ;
#241 = DIRECTION ( 'NONE',  ( 1.000000000000000000, 0.000000000000000000, -0.000000000000000000 ) ) ;
#242 = EDGE_LOOP ( 'NONE', ( #219, #177, #58, #172 ) ) ;
#243 = VECTOR ( 'NONE', #107, 1000.000000000000000 ) ;
#244 = ORIENTED_EDGE ( 'NONE', *, *, #214, .T. ) ;
#245 = DIRECTION ( 'NONE',  ( 1.000000000000000000, 0.000000000000000000, -0.000000000000000000 ) ) ;
#246 = ADVANCED_FACE ( 'NONE', ( #186 ), #183, .T. ) ;
#247 = DIRECTION ( 'NONE',  ( 0.000000000000000000, 0.000000000000000000, 1.000000000000000000 ) ) ;
#248 = AXIS2_PLACEMENT_3D ( 'NONE', #101, #188, #37 ) ;
#249 = CYLINDRICAL_SURFACE ( 'NONE', #117, 20.00000000000000000 ) ;
#250 = EDGE_CURVE ( 'NONE', #11, #32, #105, .T. ) ;
#251 = UNCERTAINTY_MEASURE_WITH_UNIT (LENGTH_MEASURE( 1.000000000000000082E-05 ), #227, 'distance_accuracy_value', 'NONE');
#252 = DIRECTION ( 'NONE',  ( -0.000000000000000000, -0.000000000000000000, -1.000000000000000000 ) ) ;
#253 = CC_DESIGN_APPROVAL ( #142, ( #204 ) ) ;
#254 = FACE_OUTER_BOUND ( 'NONE', #120, .T. ) ;
#255 = APPROVAL_ROLE ( '' ) ;
ENDSEC;
END-ISO-10303-21;
