ISO-10303-21;
HEADER;
FILE_DESCRIPTION (( 'STEP AP203' ),
    '1' );
FILE_NAME ('053b.STEP',
    '2023-02-12T11:16:42',
    ( '' ),
    ( '' ),
    'SwSTEP 2.0',
    'SolidWorks 2019',
    '' );
FILE_SCHEMA (( 'CONFIG_CONTROL_DESIGN' ));
ENDSEC;

DATA;
#1 = DIRECTION ( 'NONE',  ( 1.000000000000000000, 0.000000000000000000, -0.000000000000000000 ) ) ;
#2 = ADVANCED_FACE ( 'NONE', ( #70 ), #232, .T. ) ;
#3 = DIRECTION ( 'NONE',  ( 1.000000000000000000, 0.000000000000000000, 0.000000000000000000 ) ) ;
#4 = AXIS2_PLACEMENT_3D ( 'NONE', #239, #255, #3 ) ;
#5 = CC_DESIGN_SECURITY_CLASSIFICATION ( #214, ( #80 ) ) ;
#6 = CARTESIAN_POINT ( 'NONE',  ( -8.000000000000000000, 0.000000000000000000, 0.000000000000000000 ) ) ;
#7 = MECHANICAL_CONTEXT ( 'NONE', #153, 'mechanical' ) ;
#8 = CC_DESIGN_DATE_AND_TIME_ASSIGNMENT ( #158, #31, ( #214 ) ) ;
#9 = PRODUCT ( '053b', '053b', '', ( #7 ) ) ;
#10 = LOCAL_TIME ( 12, 16, 42.00000000000000000, #58 ) ;
#11 = FACE_OUTER_BOUND ( 'NONE', #33, .T. ) ;
#12 = VERTEX_POINT ( 'NONE', #73 ) ;
#13 = CIRCLE ( 'NONE', #45, 5.250000000000000888 ) ;
#14 = FACE_OUTER_BOUND ( 'NONE', #22, .T. ) ;
#15 = CC_DESIGN_APPROVAL ( #237, ( #246 ) ) ;
#16 = COORDINATED_UNIVERSAL_TIME_OFFSET ( 1, 0, .AHEAD. ) ;
#17 = APPROVAL ( #78, 'NEURÈENÝ' ) ;
#18 = CARTESIAN_POINT ( 'NONE',  ( 0.000000000000000000, 0.000000000000000000, 200.0000000000000000 ) ) ;
#19 = SECURITY_CLASSIFICATION_LEVEL ( 'unclassified' ) ;
#20 = CLOSED_SHELL ( 'NONE', ( #135, #87, #2, #141, #200, #44, #109 ) ) ;
#21 = EDGE_CURVE ( 'NONE', #180, #125, #13, .T. ) ;
#22 = EDGE_LOOP ( 'NONE', ( #208, #101 ) ) ;
#23 = ORIENTED_EDGE ( 'NONE', *, *, #196, .F. ) ;
#24 = AXIS2_PLACEMENT_3D ( 'NONE', #176, #155, #134 ) ;
#25 = CIRCLE ( 'NONE', #56, 8.000000000000000000 ) ;
#26 = ORIENTED_EDGE ( 'NONE', *, *, #21, .T. ) ;
#27 = DIRECTION ( 'NONE',  ( 1.000000000000000000, 0.000000000000000000, 0.000000000000000000 ) ) ;
#28 = PERSON ( 'NEURÈENÝ', 'NEURÈENÝ', 'NEURÈENÝ', ('NEURÈENÝ'), ('NEURÈENÝ'), ('NEURÈENÝ') ) ;
#29 = CARTESIAN_POINT ( 'NONE',  ( 5.250000000000000888, 6.429395695523605139E-16, 200.0000000000000000 ) ) ;
#30 = DIRECTION ( 'NONE',  ( -0.000000000000000000, -0.000000000000000000, -1.000000000000000000 ) ) ;
#31 = DATE_TIME_ROLE ( 'classification_date' ) ;
#32 = PERSON_AND_ORGANIZATION_ROLE ( 'design_owner' ) ;
#33 = EDGE_LOOP ( 'NONE', ( #163, #92, #118, #47 ) ) ;
#34 = CYLINDRICAL_SURFACE ( 'NONE', #68, 5.250000000000000888 ) ;
#35 = CARTESIAN_POINT ( 'NONE',  ( 5.250000000000000888, 6.429395695523605139E-16, 5.000000000000000000 ) ) ;
#36 = CC_DESIGN_PERSON_AND_ORGANIZATION_ASSIGNMENT ( #60, #233, ( #80 ) ) ;
#37 = DATE_AND_TIME ( #201, #72 ) ;
#38 = EDGE_LOOP ( 'NONE', ( #39, #99 ) ) ;
#39 = ORIENTED_EDGE ( 'NONE', *, *, #21, .F. ) ;
#40 = DIRECTION ( 'NONE',  ( 0.000000000000000000, 0.000000000000000000, 1.000000000000000000 ) ) ;
#41 = ORIENTED_EDGE ( 'NONE', *, *, #178, .F. ) ;
#42 =( LENGTH_UNIT ( ) NAMED_UNIT ( * ) SI_UNIT ( .MILLI., .METRE. ) );
#43 = DIRECTION ( 'NONE',  ( 1.000000000000000000, 0.000000000000000000, 0.000000000000000000 ) ) ;
#44 = ADVANCED_FACE ( 'NONE', ( #197 ), #34, .T. ) ;
#45 = AXIS2_PLACEMENT_3D ( 'NONE', #49, #120, #143 ) ;
#46 = AXIS2_PLACEMENT_3D ( 'NONE', #221, #40, #27 ) ;
#47 = ORIENTED_EDGE ( 'NONE', *, *, #55, .F. ) ;
#48 = VERTEX_POINT ( 'NONE', #156 ) ;
#49 = CARTESIAN_POINT ( 'NONE',  ( 0.000000000000000000, 0.000000000000000000, 5.000000000000000000 ) ) ;
#50 = CARTESIAN_POINT ( 'NONE',  ( -8.000000000000000000, 0.000000000000000000, 5.000000000000000000 ) ) ;
#51 = APPROVAL_STATUS ( 'not_yet_approved' ) ;
#52 = CARTESIAN_POINT ( 'NONE',  ( -5.250000000000000888, 0.000000000000000000, 200.0000000000000000 ) ) ;
#53 = PERSON_AND_ORGANIZATION ( #28, #126 ) ;
#54 = APPROVAL_ROLE ( '' ) ;
#55 = EDGE_CURVE ( 'NONE', #69, #254, #189, .T. ) ;
#56 = AXIS2_PLACEMENT_3D ( 'NONE', #102, #184, #203 ) ;
#57 = AXIS2_PLACEMENT_3D ( 'NONE', #85, #206, #166 ) ;
#58 = COORDINATED_UNIVERSAL_TIME_OFFSET ( 1, 0, .AHEAD. ) ;
#59 = CC_DESIGN_PERSON_AND_ORGANIZATION_ASSIGNMENT ( #215, #124, ( #214 ) ) ;
#60 = PERSON_AND_ORGANIZATION ( #28, #126 ) ;
#61 = AXIS2_PLACEMENT_3D ( 'NONE', #235, #103, #43 ) ;
#62 = EDGE_LOOP ( 'NONE', ( #23, #174, #71, #26 ) ) ;
#63 = DIRECTION ( 'NONE',  ( 0.000000000000000000, 0.000000000000000000, 1.000000000000000000 ) ) ;
#64 = COORDINATED_UNIVERSAL_TIME_OFFSET ( 1, 0, .AHEAD. ) ;
#65 = FACE_OUTER_BOUND ( 'NONE', #212, .T. ) ;
#66 = APPLICATION_PROTOCOL_DEFINITION ( 'international standard', 'config_control_design', 1994, #153 ) ;
#67 = CALENDAR_DATE ( 2023, 12, 2 ) ;
#69 = VERTEX_POINT ( 'NONE', #50 ) ;
#68 = AXIS2_PLACEMENT_3D ( 'NONE', #18, #98, #112 ) ;
#70 = FACE_OUTER_BOUND ( 'NONE', #204, .T. ) ;
#71 = ORIENTED_EDGE ( 'NONE', *, *, #76, .T. ) ;
#72 = LOCAL_TIME ( 12, 16, 42.00000000000000000, #252 ) ;
#73 = CARTESIAN_POINT ( 'NONE',  ( 8.000000000000000000, 9.797174393178825657E-16, 5.000000000000000000 ) ) ;
#74 = DIRECTION ( 'NONE',  ( 0.000000000000000000, 0.000000000000000000, 1.000000000000000000 ) ) ;
#75 = DIRECTION ( 'NONE',  ( 0.000000000000000000, 0.000000000000000000, 1.000000000000000000 ) ) ;
#76 = EDGE_CURVE ( 'NONE', #241, #180, #136, .T. ) ;
#77 = UNCERTAINTY_MEASURE_WITH_UNIT (LENGTH_MEASURE( 1.000000000000000082E-05 ), #42, 'distance_accuracy_value', 'NONE');
#78 = APPROVAL_STATUS ( 'not_yet_approved' ) ;
#79 = ORIENTED_EDGE ( 'NONE', *, *, #249, .T. ) ;
#80 = PRODUCT_DEFINITION_FORMATION_WITH_SPECIFIED_SOURCE ( 'LIBOVOLNÝ', '', #9, .NOT_KNOWN. ) ;
#81 = PERSON_AND_ORGANIZATION_ROLE ( 'design_supplier' ) ;
#82 = EDGE_LOOP ( 'NONE', ( #41, #127, #79, #231 ) ) ;
#83 = CARTESIAN_POINT ( 'NONE',  ( 0.000000000000000000, 0.000000000000000000, 0.000000000000000000 ) ) ;
#84 = DIRECTION ( 'NONE',  ( -1.000000000000000000, 0.000000000000000000, 0.000000000000000000 ) ) ;
#85 = CARTESIAN_POINT ( 'NONE',  ( 0.000000000000000000, 0.000000000000000000, 0.000000000000000000 ) ) ;
#86 = CIRCLE ( 'NONE', #4, 5.250000000000000888 ) ;
#87 = ADVANCED_FACE ( 'NONE', ( #11 ), #210, .T. ) ;
#88 =( NAMED_UNIT ( * ) PLANE_ANGLE_UNIT ( ) SI_UNIT ( $, .RADIAN. ) );
#89 = APPROVAL ( #51, 'NEURÈENÝ' ) ;
#90 = ORIENTED_EDGE ( 'NONE', *, *, #116, .T. ) ;
#91 = AXIS2_PLACEMENT_3D ( 'NONE', #236, #106, #146 ) ;
#92 = ORIENTED_EDGE ( 'NONE', *, *, #104, .T. ) ;
#93 = CARTESIAN_POINT ( 'NONE',  ( -8.000000000000000000, 0.000000000000000000, 5.000000000000000000 ) ) ;
#94 = ORIENTED_EDGE ( 'NONE', *, *, #172, .T. ) ;
#95 = DESIGN_CONTEXT ( 'detailed design', #216, 'design' ) ;
#96 = PLANE ( 'NONE',  #123 ) ;
#97 = CALENDAR_DATE ( 2023, 12, 2 ) ;
#98 = DIRECTION ( 'NONE',  ( -0.000000000000000000, -0.000000000000000000, -1.000000000000000000 ) ) ;
#99 = ORIENTED_EDGE ( 'NONE', *, *, #249, .F. ) ;
#100 = PERSON_AND_ORGANIZATION ( #28, #126 ) ;
#101 = ORIENTED_EDGE ( 'NONE', *, *, #178, .T. ) ;
#102 = CARTESIAN_POINT ( 'NONE',  ( 0.000000000000000000, 0.000000000000000000, 5.000000000000000000 ) ) ;
#103 = DIRECTION ( 'NONE',  ( 0.000000000000000000, 0.000000000000000000, 1.000000000000000000 ) ) ;
#104 = EDGE_CURVE ( 'NONE', #12, #48, #115, .T. ) ;
#105 = APPROVAL_ROLE ( '' ) ;
#106 = DIRECTION ( 'NONE',  ( 0.000000000000000000, 0.000000000000000000, 1.000000000000000000 ) ) ;
#107 = LOCAL_TIME ( 12, 16, 42.00000000000000000, #121 ) ;
#108 = DIRECTION ( 'NONE',  ( 1.000000000000000000, 0.000000000000000000, 0.000000000000000000 ) ) ;
#109 = ADVANCED_FACE ( 'NONE', ( #14 ), #96, .T. ) ;
#110 = DATE_AND_TIME ( #67, #253 ) ;
#111 = DATE_AND_TIME ( #97, #185 ) ;
#112 = DIRECTION ( 'NONE',  ( -1.000000000000000000, 0.000000000000000000, 0.000000000000000000 ) ) ;
#113 = VECTOR ( 'NONE', #149, 1000.000000000000000 ) ;
#114 = ORIENTED_EDGE ( 'NONE', *, *, #172, .F. ) ;
#115 = LINE ( 'NONE', #117, #140 ) ;
#116 = EDGE_CURVE ( 'NONE', #12, #69, #194, .T. ) ;
#117 = CARTESIAN_POINT ( 'NONE',  ( 8.000000000000000000, 9.797174393178825657E-16, 5.000000000000000000 ) ) ;
#118 = ORIENTED_EDGE ( 'NONE', *, *, #145, .T. ) ;
#119 = APPROVAL_PERSON_ORGANIZATION ( #150, #237, #54 ) ;
#120 = DIRECTION ( 'NONE',  ( 0.000000000000000000, 0.000000000000000000, 1.000000000000000000 ) ) ;
#121 = COORDINATED_UNIVERSAL_TIME_OFFSET ( 1, 0, .AHEAD. ) ;
#122 = DATE_TIME_ROLE ( 'creation_date' ) ;
#123 = AXIS2_PLACEMENT_3D ( 'NONE', #175, #74, #139 ) ;
#124 = PERSON_AND_ORGANIZATION_ROLE ( 'classification_officer' ) ;
#125 = VERTEX_POINT ( 'NONE', #35 ) ;
#126 = ORGANIZATION ( 'NEURÈENÝ', 'NEURÈENÝ', '' ) ;
#127 = ORIENTED_EDGE ( 'NONE', *, *, #196, .T. ) ;
#128 = CARTESIAN_POINT ( 'NONE',  ( 5.250000000000000888, 6.429395695523605139E-16, 200.0000000000000000 ) ) ;
#129 = PRODUCT_DEFINITION_SHAPE ( 'NONE', 'NONE',  #246 ) ;
#130 = AXIS2_PLACEMENT_3D ( 'NONE', #83, #63, #1 ) ;
#131 = DIRECTION ( 'NONE',  ( 0.000000000000000000, 0.000000000000000000, 1.000000000000000000 ) ) ;
#132 = LINE ( 'NONE', #128, #113 ) ;
#133 = PERSON_AND_ORGANIZATION ( #28, #126 ) ;
#134 = DIRECTION ( 'NONE',  ( -1.000000000000000000, 0.000000000000000000, 0.000000000000000000 ) ) ;
#135 = ADVANCED_FACE ( 'NONE', ( #159 ), #234, .T. ) ;
#136 = LINE ( 'NONE', #52, #213 ) ;
#137 = APPROVAL_STATUS ( 'not_yet_approved' ) ;
#138 = ORIENTED_EDGE ( 'NONE', *, *, #145, .F. ) ;
#139 = DIRECTION ( 'NONE',  ( 1.000000000000000000, 0.000000000000000000, -0.000000000000000000 ) ) ;
#140 = VECTOR ( 'NONE', #192, 1000.000000000000000 ) ;
#141 = ADVANCED_FACE ( 'NONE', ( #165, #148 ), #147, .T. ) ;
#142 = CC_DESIGN_APPROVAL ( #17, ( #80 ) ) ;
#143 = DIRECTION ( 'NONE',  ( 1.000000000000000000, 0.000000000000000000, 0.000000000000000000 ) ) ;
#144 = AXIS2_PLACEMENT_3D ( 'NONE', #151, #230, #84 ) ;
#145 = EDGE_CURVE ( 'NONE', #48, #254, #240, .T. ) ;
#146 = DIRECTION ( 'NONE',  ( 1.000000000000000000, 0.000000000000000000, 0.000000000000000000 ) ) ;
#147 = PLANE ( 'NONE',  #227 ) ;
#148 = FACE_OUTER_BOUND ( 'NONE', #250, .T. ) ;
#149 = DIRECTION ( 'NONE',  ( -0.000000000000000000, -0.000000000000000000, -1.000000000000000000 ) ) ;
#150 = PERSON_AND_ORGANIZATION ( #28, #126 ) ;
#151 = CARTESIAN_POINT ( 'NONE',  ( 0.000000000000000000, 0.000000000000000000, 5.000000000000000000 ) ) ;
#152 = APPROVAL_DATE_TIME ( #110, #89 ) ;
#153 = APPLICATION_CONTEXT ( 'configuration controlled 3d designs of mechanical parts and assemblies' ) ;
#154 = CC_DESIGN_PERSON_AND_ORGANIZATION_ASSIGNMENT ( #133, #179, ( #246 ) ) ;
#155 = DIRECTION ( 'NONE',  ( -0.000000000000000000, -0.000000000000000000, -1.000000000000000000 ) ) ;
#156 = CARTESIAN_POINT ( 'NONE',  ( 8.000000000000000000, 9.797174393178825657E-16, 0.000000000000000000 ) ) ;
#157 = DIRECTION ( 'NONE',  ( 1.000000000000000000, 0.000000000000000000, 0.000000000000000000 ) ) ;
#158 = DATE_AND_TIME ( #247, #107 ) ;
#159 = FACE_OUTER_BOUND ( 'NONE', #82, .T. ) ;
#160 = APPROVAL_DATE_TIME ( #177, #17 ) ;
#161 = CIRCLE ( 'NONE', #91, 5.250000000000000888 ) ;
#162 = CARTESIAN_POINT ( 'NONE',  ( 0.000000000000000000, 0.000000000000000000, 5.000000000000000000 ) ) ;
#163 = ORIENTED_EDGE ( 'NONE', *, *, #116, .F. ) ;
#164 =( NAMED_UNIT ( * ) SI_UNIT ( $, .STERADIAN. ) SOLID_ANGLE_UNIT ( ) );
#165 = FACE_BOUND ( 'NONE', #38, .T. ) ;
#166 = DIRECTION ( 'NONE',  ( 1.000000000000000000, 0.000000000000000000, 0.000000000000000000 ) ) ;
#167 = EDGE_CURVE ( 'NONE', #254, #48, #173, .T. ) ;
#168 = DIRECTION ( 'NONE',  ( -0.000000000000000000, -0.000000000000000000, -1.000000000000000000 ) ) ;
#169 = VERTEX_POINT ( 'NONE', #29 ) ;
#170 = APPLICATION_PROTOCOL_DEFINITION ( 'international standard', 'config_control_design', 1994, #216 ) ;
#171 = ORIENTED_EDGE ( 'NONE', *, *, #167, .F. ) ;
#172 = EDGE_CURVE ( 'NONE', #69, #12, #25, .T. ) ;
#173 = CIRCLE ( 'NONE', #61, 8.000000000000000000 ) ;
#174 = ORIENTED_EDGE ( 'NONE', *, *, #219, .F. ) ;
#175 = CARTESIAN_POINT ( 'NONE',  ( 0.000000000000000000, 0.000000000000000000, 200.0000000000000000 ) ) ;
#176 = CARTESIAN_POINT ( 'NONE',  ( 0.000000000000000000, 0.000000000000000000, 5.000000000000000000 ) ) ;
#177 = DATE_AND_TIME ( #198, #10 ) ;
#178 = EDGE_CURVE ( 'NONE', #169, #241, #86, .T. ) ;
#179 = PERSON_AND_ORGANIZATION_ROLE ( 'creator' ) ;
#180 = VERTEX_POINT ( 'NONE', #238 ) ;
#181 = PERSON_AND_ORGANIZATION ( #28, #126 ) ;
#182 = AXIS2_PLACEMENT_3D ( 'NONE', #224, #168, #207 ) ;
#183 = PRODUCT_RELATED_PRODUCT_CATEGORY ( 'detail', '', ( #9 ) ) ;
#184 = DIRECTION ( 'NONE',  ( 0.000000000000000000, 0.000000000000000000, 1.000000000000000000 ) ) ;
#185 = LOCAL_TIME ( 12, 16, 42.00000000000000000, #16 ) ;
#186 = AXIS2_PLACEMENT_3D ( 'NONE', #188, #131, #108 ) ;
#187 = CC_DESIGN_PERSON_AND_ORGANIZATION_ASSIGNMENT ( #53, #32, ( #9 ) ) ;
#188 = CARTESIAN_POINT ( 'NONE',  ( 0.000000000000000000, 0.000000000000000000, 0.000000000000000000 ) ) ;
#189 = LINE ( 'NONE', #93, #251 ) ;
#190 = AXIS2_PLACEMENT_3D ( 'NONE', #245, #75, #157 ) ;
#191 = PERSON_AND_ORGANIZATION ( #28, #126 ) ;
#192 = DIRECTION ( 'NONE',  ( -0.000000000000000000, -0.000000000000000000, -1.000000000000000000 ) ) ;
#193 = CIRCLE ( 'NONE', #46, 5.250000000000000888 ) ;
#194 = CIRCLE ( 'NONE', #190, 8.000000000000000000 ) ;
#195 =( GEOMETRIC_REPRESENTATION_CONTEXT ( 3 ) GLOBAL_UNCERTAINTY_ASSIGNED_CONTEXT ( ( #77 ) ) GLOBAL_UNIT_ASSIGNED_CONTEXT ( ( #42, #88, #164 ) ) REPRESENTATION_CONTEXT ( 'NONE', 'WORKASPACE' ) );
#196 = EDGE_CURVE ( 'NONE', #169, #125, #132, .T. ) ;
#197 = FACE_OUTER_BOUND ( 'NONE', #62, .T. ) ;
#198 = CALENDAR_DATE ( 2023, 12, 2 ) ;
#199 = ORIENTED_EDGE ( 'NONE', *, *, #55, .T. ) ;
#200 = ADVANCED_FACE ( 'NONE', ( #65 ), #223, .F. ) ;
#201 = CALENDAR_DATE ( 2023, 12, 2 ) ;
#202 = APPROVAL_DATE_TIME ( #111, #237 ) ;
#203 = DIRECTION ( 'NONE',  ( 1.000000000000000000, 0.000000000000000000, 0.000000000000000000 ) ) ;
#204 = EDGE_LOOP ( 'NONE', ( #244, #114, #199, #220 ) ) ;
#205 = SHAPE_DEFINITION_REPRESENTATION ( #129, #248 ) ;
#206 = DIRECTION ( 'NONE',  ( 0.000000000000000000, 0.000000000000000000, 1.000000000000000000 ) ) ;
#207 = DIRECTION ( 'NONE',  ( -1.000000000000000000, 0.000000000000000000, 0.000000000000000000 ) ) ;
#208 = ORIENTED_EDGE ( 'NONE', *, *, #219, .T. ) ;
#209 = CC_DESIGN_DATE_AND_TIME_ASSIGNMENT ( #37, #122, ( #246 ) ) ;
#210 = CYLINDRICAL_SURFACE ( 'NONE', #24, 8.000000000000000000 ) ;
#211 = CC_DESIGN_PERSON_AND_ORGANIZATION_ASSIGNMENT ( #181, #81, ( #80 ) ) ;
#212 = EDGE_LOOP ( 'NONE', ( #171, #138 ) ) ;
#213 = VECTOR ( 'NONE', #242, 1000.000000000000000 ) ;
#214 = SECURITY_CLASSIFICATION ( '', '', #19 ) ;
#215 = PERSON_AND_ORGANIZATION ( #28, #126 ) ;
#216 = APPLICATION_CONTEXT ( 'configuration controlled 3d designs of mechanical parts and assemblies' ) ;
#217 = APPROVAL_PERSON_ORGANIZATION ( #100, #17, #218 ) ;
#218 = APPROVAL_ROLE ( '' ) ;
#219 = EDGE_CURVE ( 'NONE', #241, #169, #161, .T. ) ;
#220 = ORIENTED_EDGE ( 'NONE', *, *, #167, .T. ) ;
#221 = CARTESIAN_POINT ( 'NONE',  ( 0.000000000000000000, 0.000000000000000000, 5.000000000000000000 ) ) ;
#222 = MANIFOLD_SOLID_BREP ( 'Pøidat vysunutím3', #20 ) ;
#223 = PLANE ( 'NONE',  #130 ) ;
#224 = CARTESIAN_POINT ( 'NONE',  ( 0.000000000000000000, 0.000000000000000000, 200.0000000000000000 ) ) ;
#225 = DIRECTION ( 'NONE',  ( 1.000000000000000000, 0.000000000000000000, -0.000000000000000000 ) ) ;
#226 = CARTESIAN_POINT ( 'NONE',  ( -5.250000000000000888, 0.000000000000000000, 200.0000000000000000 ) ) ;
#227 = AXIS2_PLACEMENT_3D ( 'NONE', #162, #229, #225 ) ;
#228 = APPROVAL_PERSON_ORGANIZATION ( #191, #89, #105 ) ;
#229 = DIRECTION ( 'NONE',  ( 0.000000000000000000, 0.000000000000000000, 1.000000000000000000 ) ) ;
#230 = DIRECTION ( 'NONE',  ( -0.000000000000000000, -0.000000000000000000, -1.000000000000000000 ) ) ;
#231 = ORIENTED_EDGE ( 'NONE', *, *, #76, .F. ) ;
#232 = CYLINDRICAL_SURFACE ( 'NONE', #144, 8.000000000000000000 ) ;
#233 = PERSON_AND_ORGANIZATION_ROLE ( 'creator' ) ;
#234 = CYLINDRICAL_SURFACE ( 'NONE', #182, 5.250000000000000888 ) ;
#235 = CARTESIAN_POINT ( 'NONE',  ( 0.000000000000000000, 0.000000000000000000, 0.000000000000000000 ) ) ;
#236 = CARTESIAN_POINT ( 'NONE',  ( 0.000000000000000000, 0.000000000000000000, 200.0000000000000000 ) ) ;
#237 = APPROVAL ( #137, 'NEURÈENÝ' ) ;
#238 = CARTESIAN_POINT ( 'NONE',  ( -5.250000000000000888, 0.000000000000000000, 5.000000000000000000 ) ) ;
#239 = CARTESIAN_POINT ( 'NONE',  ( 0.000000000000000000, 0.000000000000000000, 200.0000000000000000 ) ) ;
#240 = CIRCLE ( 'NONE', #57, 8.000000000000000000 ) ;
#241 = VERTEX_POINT ( 'NONE', #226 ) ;
#242 = DIRECTION ( 'NONE',  ( -0.000000000000000000, -0.000000000000000000, -1.000000000000000000 ) ) ;
#243 = CC_DESIGN_APPROVAL ( #89, ( #214 ) ) ;
#244 = ORIENTED_EDGE ( 'NONE', *, *, #104, .F. ) ;
#245 = CARTESIAN_POINT ( 'NONE',  ( 0.000000000000000000, 0.000000000000000000, 5.000000000000000000 ) ) ;
#246 = PRODUCT_DEFINITION ( 'NEZNÁMÝ', '', #80, #95 ) ;
#247 = CALENDAR_DATE ( 2023, 12, 2 ) ;
#248 = ADVANCED_BREP_SHAPE_REPRESENTATION ( '053b', ( #222, #186 ), #195 ) ;
#249 = EDGE_CURVE ( 'NONE', #125, #180, #193, .T. ) ;
#250 = EDGE_LOOP ( 'NONE', ( #94, #90 ) ) ;
#251 = VECTOR ( 'NONE', #30, 1000.000000000000000 ) ;
#252 = COORDINATED_UNIVERSAL_TIME_OFFSET ( 1, 0, .AHEAD. ) ;
#253 = LOCAL_TIME ( 12, 16, 42.00000000000000000, #64 ) ;
#254 = VERTEX_POINT ( 'NONE', #6 ) ;
#255 = DIRECTION ( 'NONE',  ( 0.000000000000000000, 0.000000000000000000, 1.000000000000000000 ) ) ;
ENDSEC;
END-ISO-10303-21;
