ISO-10303-21;
HEADER;
FILE_DESCRIPTION (( 'STEP AP203' ),
    '1' );
FILE_NAME ('ef51.STEP',
    '2023-02-12T12:36:15',
    ( '' ),
    ( '' ),
    'SwSTEP 2.0',
    'SolidWorks 2019',
    '' );
FILE_SCHEMA (( 'CONFIG_CONTROL_DESIGN' ));
ENDSEC;

DATA;
#1 = CC_DESIGN_PERSON_AND_ORGANIZATION_ASSIGNMENT ( #61, #213, ( #107 ) ) ;
#2 = AXIS2_PLACEMENT_3D ( 'NONE', #20, #156, #155 ) ;
#3 = PERSON ( 'NEURÈENÝ', 'NEURÈENÝ', 'NEURÈENÝ', ('NEURÈENÝ'), ('NEURÈENÝ'), ('NEURÈENÝ') ) ;
#4 = EDGE_LOOP ( 'NONE', ( #245, #190 ) ) ;
#5 = DIRECTION ( 'NONE',  ( 0.000000000000000000, 0.000000000000000000, 1.000000000000000000 ) ) ;
#6 = ORIENTED_EDGE ( 'NONE', *, *, #183, .F. ) ;
#7 = CARTESIAN_POINT ( 'NONE',  ( 2.100000000000000089, 2.571758278209441957E-16, 3.000000000000000000 ) ) ;
#8 = CARTESIAN_POINT ( 'NONE',  ( 2.100000000000000089, 2.571758278209441957E-16, 400.0000000000000000 ) ) ;
#9 = CARTESIAN_POINT ( 'NONE',  ( -2.100000000000000089, 0.000000000000000000, 400.0000000000000000 ) ) ;
#10 = APPLICATION_CONTEXT ( 'configuration controlled 3d designs of mechanical parts and assemblies' ) ;
#11 = CARTESIAN_POINT ( 'NONE',  ( 0.000000000000000000, 0.000000000000000000, 0.000000000000000000 ) ) ;
#12 = EDGE_CURVE ( 'NONE', #27, #158, #48, .T. ) ;
#13 = VERTEX_POINT ( 'NONE', #8 ) ;
#14 = CARTESIAN_POINT ( 'NONE',  ( 0.000000000000000000, 0.000000000000000000, 3.000000000000000000 ) ) ;
#15 = PRODUCT ( 'ef51', 'ef51', '', ( #18 ) ) ;
#16 = CC_DESIGN_APPROVAL ( #236, ( #80 ) ) ;
#17 = APPROVAL_ROLE ( '' ) ;
#18 = MECHANICAL_CONTEXT ( 'NONE', #40, 'mechanical' ) ;
#19 = DATE_AND_TIME ( #88, #81 ) ;
#20 = CARTESIAN_POINT ( 'NONE',  ( 0.000000000000000000, 0.000000000000000000, 400.0000000000000000 ) ) ;
#21 = VERTEX_POINT ( 'NONE', #9 ) ;
#22 = APPROVAL_ROLE ( '' ) ;
#23 = EDGE_CURVE ( 'NONE', #13, #21, #212, .T. ) ;
#24 = CARTESIAN_POINT ( 'NONE',  ( -2.100000000000000089, 0.000000000000000000, 3.000000000000000000 ) ) ;
#25 = ORIENTED_EDGE ( 'NONE', *, *, #150, .F. ) ;
#26 = LINE ( 'NONE', #66, #100 ) ;
#27 = VERTEX_POINT ( 'NONE', #205 ) ;
#28 = PLANE ( 'NONE',  #111 ) ;
#29 = APPROVAL_PERSON_ORGANIZATION ( #181, #209, #22 ) ;
#30 = DIRECTION ( 'NONE',  ( 1.000000000000000000, 0.000000000000000000, 0.000000000000000000 ) ) ;
#31 = AXIS2_PLACEMENT_3D ( 'NONE', #225, #206, #79 ) ;
#32 = CARTESIAN_POINT ( 'NONE',  ( -4.000000000000000000, 0.000000000000000000, 3.000000000000000000 ) ) ;
#33 = CYLINDRICAL_SURFACE ( 'NONE', #220, 2.100000000000000089 ) ;
#34 = EDGE_CURVE ( 'NONE', #21, #67, #168, .T. ) ;
#35 = VECTOR ( 'NONE', #53, 1000.000000000000000 ) ;
#36 = VERTEX_POINT ( 'NONE', #7 ) ;
#37 = DIRECTION ( 'NONE',  ( 0.000000000000000000, 0.000000000000000000, 1.000000000000000000 ) ) ;
#38 = APPROVAL_STATUS ( 'not_yet_approved' ) ;
#39 = ADVANCED_FACE ( 'NONE', ( #177 ), #170, .T. ) ;
#40 = APPLICATION_CONTEXT ( 'configuration controlled 3d designs of mechanical parts and assemblies' ) ;
#41 = CARTESIAN_POINT ( 'NONE',  ( 0.000000000000000000, 0.000000000000000000, 400.0000000000000000 ) ) ;
#42 = CIRCLE ( 'NONE', #31, 2.100000000000000089 ) ;
#43 = EDGE_CURVE ( 'NONE', #27, #231, #153, .T. ) ;
#44 = DIRECTION ( 'NONE',  ( -1.000000000000000000, 0.000000000000000000, 0.000000000000000000 ) ) ;
#45 = COORDINATED_UNIVERSAL_TIME_OFFSET ( 1, 0, .AHEAD. ) ;
#46 = PLANE ( 'NONE',  #238 ) ;
#47 = ORIENTED_EDGE ( 'NONE', *, *, #43, .T. ) ;
#48 = LINE ( 'NONE', #32, #162 ) ;
#49 = DIRECTION ( 'NONE',  ( -0.000000000000000000, -0.000000000000000000, -1.000000000000000000 ) ) ;
#50 = DIRECTION ( 'NONE',  ( -1.000000000000000000, 0.000000000000000000, 0.000000000000000000 ) ) ;
#51 = CARTESIAN_POINT ( 'NONE',  ( 0.000000000000000000, 0.000000000000000000, 400.0000000000000000 ) ) ;
#52 = LOCAL_TIME ( 13, 36, 15.00000000000000000, #179 ) ;
#53 = DIRECTION ( 'NONE',  ( -0.000000000000000000, -0.000000000000000000, -1.000000000000000000 ) ) ;
#54 = CARTESIAN_POINT ( 'NONE',  ( 4.000000000000000000, 4.898587196589412829E-16, 3.000000000000000000 ) ) ;
#55 = EDGE_CURVE ( 'NONE', #21, #13, #129, .T. ) ;
#56 = PERSON_AND_ORGANIZATION ( #3, #63 ) ;
#57 = CIRCLE ( 'NONE', #104, 4.000000000000000000 ) ;
#58 = DATE_AND_TIME ( #241, #142 ) ;
#59 = DIRECTION ( 'NONE',  ( 1.000000000000000000, 0.000000000000000000, 0.000000000000000000 ) ) ;
#60 = DATE_AND_TIME ( #90, #108 ) ;
#61 = PERSON_AND_ORGANIZATION ( #3, #63 ) ;
#62 = APPROVAL_STATUS ( 'not_yet_approved' ) ;
#63 = ORGANIZATION ( 'NEURÈENÝ', 'NEURÈENÝ', '' ) ;
#64 = EDGE_CURVE ( 'NONE', #158, #163, #57, .T. ) ;
#65 = DATE_AND_TIME ( #116, #92 ) ;
#66 = CARTESIAN_POINT ( 'NONE',  ( 2.100000000000000089, 2.571758278209441957E-16, 400.0000000000000000 ) ) ;
#67 = VERTEX_POINT ( 'NONE', #24 ) ;
#68 = EDGE_LOOP ( 'NONE', ( #6, #138, #147, #200 ) ) ;
#69 = CC_DESIGN_PERSON_AND_ORGANIZATION_ASSIGNMENT ( #56, #130, ( #80 ) ) ;
#70 = CLOSED_SHELL ( 'NONE', ( #186, #117, #141, #113, #85, #39, #174 ) ) ;
#71 = DIRECTION ( 'NONE',  ( 1.000000000000000000, 0.000000000000000000, -0.000000000000000000 ) ) ;
#72 = ORIENTED_EDGE ( 'NONE', *, *, #23, .F. ) ;
#73 = APPROVAL_PERSON_ORGANIZATION ( #173, #91, #239 ) ;
#74 = DIRECTION ( 'NONE',  ( -0.000000000000000000, -0.000000000000000000, -1.000000000000000000 ) ) ;
#75 = VECTOR ( 'NONE', #247, 1000.000000000000000 ) ;
#76 = MANIFOLD_SOLID_BREP ( 'Pøidat vysunutím3', #70 ) ;
#77 = CARTESIAN_POINT ( 'NONE',  ( 0.000000000000000000, 0.000000000000000000, 400.0000000000000000 ) ) ;
#78 = ORIENTED_EDGE ( 'NONE', *, *, #214, .F. ) ;
#79 = DIRECTION ( 'NONE',  ( 1.000000000000000000, 0.000000000000000000, 0.000000000000000000 ) ) ;
#80 = PRODUCT_DEFINITION ( 'NEZNÁMÝ', '', #107, #136 ) ;
#81 = LOCAL_TIME ( 13, 36, 15.00000000000000000, #243 ) ;
#82 = DIRECTION ( 'NONE',  ( 1.000000000000000000, 0.000000000000000000, -0.000000000000000000 ) ) ;
#83 = PRODUCT_DEFINITION_SHAPE ( 'NONE', 'NONE',  #80 ) ;
#84 = PERSON_AND_ORGANIZATION ( #3, #63 ) ;
#85 = ADVANCED_FACE ( 'NONE', ( #140 ), #28, .F. ) ;
#86 = DIRECTION ( 'NONE',  ( 0.000000000000000000, 0.000000000000000000, 1.000000000000000000 ) ) ;
#87 = DIRECTION ( 'NONE',  ( 0.000000000000000000, 0.000000000000000000, 1.000000000000000000 ) ) ;
#88 = CALENDAR_DATE ( 2023, 12, 2 ) ;
#89 = ORIENTED_EDGE ( 'NONE', *, *, #34, .F. ) ;
#90 = CALENDAR_DATE ( 2023, 12, 2 ) ;
#91 = APPROVAL ( #62, 'NEURÈENÝ' ) ;
#92 = LOCAL_TIME ( 13, 36, 15.00000000000000000, #45 ) ;
#93 = APPROVAL_STATUS ( 'not_yet_approved' ) ;
#94 = EDGE_LOOP ( 'NONE', ( #201, #202, #133, #216 ) ) ;
#95 = DIRECTION ( 'NONE',  ( -0.000000000000000000, -0.000000000000000000, -1.000000000000000000 ) ) ;
#96 = UNCERTAINTY_MEASURE_WITH_UNIT (LENGTH_MEASURE( 1.000000000000000082E-05 ), #221, 'distance_accuracy_value', 'NONE');
#97 = EDGE_CURVE ( 'NONE', #13, #36, #26, .T. ) ;
#98 = EDGE_LOOP ( 'NONE', ( #47, #215 ) ) ;
#99 = FACE_OUTER_BOUND ( 'NONE', #98, .T. ) ;
#100 = VECTOR ( 'NONE', #95, 1000.000000000000000 ) ;
#101 = CARTESIAN_POINT ( 'NONE',  ( 0.000000000000000000, 0.000000000000000000, 3.000000000000000000 ) ) ;
#102 = CC_DESIGN_PERSON_AND_ORGANIZATION_ASSIGNMENT ( #193, #112, ( #15 ) ) ;
#103 = CARTESIAN_POINT ( 'NONE',  ( 0.000000000000000000, 0.000000000000000000, 400.0000000000000000 ) ) ;
#104 = AXIS2_PLACEMENT_3D ( 'NONE', #196, #87, #30 ) ;
#105 =( NAMED_UNIT ( * ) SI_UNIT ( $, .STERADIAN. ) SOLID_ANGLE_UNIT ( ) );
#106 = FACE_OUTER_BOUND ( 'NONE', #123, .T. ) ;
#107 = PRODUCT_DEFINITION_FORMATION_WITH_SPECIFIED_SOURCE ( 'LIBOVOLNÝ', '', #15, .NOT_KNOWN. ) ;
#108 = LOCAL_TIME ( 13, 36, 15.00000000000000000, #151 ) ;
#109 = DATE_TIME_ROLE ( 'creation_date' ) ;
#110 = CC_DESIGN_PERSON_AND_ORGANIZATION_ASSIGNMENT ( #194, #175, ( #107 ) ) ;
#111 = AXIS2_PLACEMENT_3D ( 'NONE', #218, #121, #249 ) ;
#112 = PERSON_AND_ORGANIZATION_ROLE ( 'design_owner' ) ;
#113 = ADVANCED_FACE ( 'NONE', ( #160, #99 ), #46, .T. ) ;
#114 = ORIENTED_EDGE ( 'NONE', *, *, #199, .F. ) ;
#115 = CALENDAR_DATE ( 2023, 12, 2 ) ;
#116 = CALENDAR_DATE ( 2023, 12, 2 ) ;
#117 = ADVANCED_FACE ( 'NONE', ( #204 ), #139, .T. ) ;
#118 = ORIENTED_EDGE ( 'NONE', *, *, #214, .T. ) ;
#119 = SECURITY_CLASSIFICATION ( '', '', #227 ) ;
#120 = AXIS2_PLACEMENT_3D ( 'NONE', #101, #250, #228 ) ;
#121 = DIRECTION ( 'NONE',  ( 0.000000000000000000, 0.000000000000000000, 1.000000000000000000 ) ) ;
#122 = AXIS2_PLACEMENT_3D ( 'NONE', #166, #86, #128 ) ;
#123 = EDGE_LOOP ( 'NONE', ( #72, #229, #118, #89 ) ) ;
#124 = DIRECTION ( 'NONE',  ( 0.000000000000000000, 0.000000000000000000, 1.000000000000000000 ) ) ;
#125 = FACE_OUTER_BOUND ( 'NONE', #4, .T. ) ;
#126 = ORIENTED_EDGE ( 'NONE', *, *, #12, .T. ) ;
#127 = CARTESIAN_POINT ( 'NONE',  ( -4.000000000000000000, 0.000000000000000000, 0.000000000000000000 ) ) ;
#128 = DIRECTION ( 'NONE',  ( 1.000000000000000000, 0.000000000000000000, 0.000000000000000000 ) ) ;
#129 = CIRCLE ( 'NONE', #2, 2.100000000000000089 ) ;
#130 = PERSON_AND_ORGANIZATION_ROLE ( 'creator' ) ;
#131 = CC_DESIGN_PERSON_AND_ORGANIZATION_ASSIGNMENT ( #84, #195, ( #119 ) ) ;
#132 = CIRCLE ( 'NONE', #211, 4.000000000000000000 ) ;
#133 = ORIENTED_EDGE ( 'NONE', *, *, #34, .T. ) ;
#134 = APPROVAL_DATE_TIME ( #246, #209 ) ;
#135 = LINE ( 'NONE', #180, #75 ) ;
#136 = DESIGN_CONTEXT ( 'detailed design', #10, 'design' ) ;
#137 = PRODUCT_RELATED_PRODUCT_CATEGORY ( 'detail', '', ( #15 ) ) ;
#138 = ORIENTED_EDGE ( 'NONE', *, *, #150, .T. ) ;
#139 = CYLINDRICAL_SURFACE ( 'NONE', #120, 4.000000000000000000 ) ;
#140 = FACE_OUTER_BOUND ( 'NONE', #178, .T. ) ;
#141 = ADVANCED_FACE ( 'NONE', ( #217 ), #184, .T. ) ;
#142 = LOCAL_TIME ( 13, 36, 15.00000000000000000, #255 ) ;
#143 = CC_DESIGN_APPROVAL ( #91, ( #107 ) ) ;
#144 = CARTESIAN_POINT ( 'NONE',  ( 0.000000000000000000, 0.000000000000000000, 3.000000000000000000 ) ) ;
#145 = DIRECTION ( 'NONE',  ( 0.000000000000000000, 0.000000000000000000, 1.000000000000000000 ) ) ;
#146 = DIRECTION ( 'NONE',  ( 0.000000000000000000, 0.000000000000000000, 1.000000000000000000 ) ) ;
#147 = ORIENTED_EDGE ( 'NONE', *, *, #233, .T. ) ;
#148 = AXIS2_PLACEMENT_3D ( 'NONE', #41, #234, #50 ) ;
#149 = CARTESIAN_POINT ( 'NONE',  ( 0.000000000000000000, 0.000000000000000000, 3.000000000000000000 ) ) ;
#150 = EDGE_CURVE ( 'NONE', #231, #163, #135, .T. ) ;
#151 = COORDINATED_UNIVERSAL_TIME_OFFSET ( 1, 0, .AHEAD. ) ;
#152 = AXIS2_PLACEMENT_3D ( 'NONE', #149, #146, #222 ) ;
#153 = CIRCLE ( 'NONE', #191, 4.000000000000000000 ) ;
#154 = APPROVAL_DATE_TIME ( #58, #91 ) ;
#155 = DIRECTION ( 'NONE',  ( 1.000000000000000000, 0.000000000000000000, 0.000000000000000000 ) ) ;
#156 = DIRECTION ( 'NONE',  ( 0.000000000000000000, 0.000000000000000000, 1.000000000000000000 ) ) ;
#157 = APPROVAL_PERSON_ORGANIZATION ( #197, #236, #17 ) ;
#158 = VERTEX_POINT ( 'NONE', #127 ) ;
#159 = APPROVAL_DATE_TIME ( #60, #236 ) ;
#160 = FACE_BOUND ( 'NONE', #232, .T. ) ;
#161 = ORIENTED_EDGE ( 'NONE', *, *, #64, .T. ) ;
#162 = VECTOR ( 'NONE', #235, 1000.000000000000000 ) ;
#163 = VERTEX_POINT ( 'NONE', #167 ) ;
#164 = ORIENTED_EDGE ( 'NONE', *, *, #43, .F. ) ;
#165 = CARTESIAN_POINT ( 'NONE',  ( 0.000000000000000000, 0.000000000000000000, 3.000000000000000000 ) ) ;
#166 = CARTESIAN_POINT ( 'NONE',  ( 0.000000000000000000, 0.000000000000000000, 0.000000000000000000 ) ) ;
#167 = CARTESIAN_POINT ( 'NONE',  ( 4.000000000000000000, 4.898587196589412829E-16, 0.000000000000000000 ) ) ;
#168 = LINE ( 'NONE', #203, #35 ) ;
#169 = DIRECTION ( 'NONE',  ( 1.000000000000000000, 0.000000000000000000, 0.000000000000000000 ) ) ;
#170 = CYLINDRICAL_SURFACE ( 'NONE', #148, 2.100000000000000089 ) ;
#171 = DIRECTION ( 'NONE',  ( 1.000000000000000000, 0.000000000000000000, 0.000000000000000000 ) ) ;
#172 = CC_DESIGN_DATE_AND_TIME_ASSIGNMENT ( #65, #248, ( #119 ) ) ;
#173 = PERSON_AND_ORGANIZATION ( #3, #63 ) ;
#174 = ADVANCED_FACE ( 'NONE', ( #125 ), #208, .T. ) ;
#175 = PERSON_AND_ORGANIZATION_ROLE ( 'creator' ) ;
#176 = CC_DESIGN_APPROVAL ( #209, ( #119 ) ) ;
#177 = FACE_OUTER_BOUND ( 'NONE', #94, .T. ) ;
#178 = EDGE_LOOP ( 'NONE', ( #198, #187 ) ) ;
#179 = COORDINATED_UNIVERSAL_TIME_OFFSET ( 1, 0, .AHEAD. ) ;
#180 = CARTESIAN_POINT ( 'NONE',  ( 4.000000000000000000, 4.898587196589412829E-16, 3.000000000000000000 ) ) ;
#181 = PERSON_AND_ORGANIZATION ( #3, #63 ) ;
#182 = CARTESIAN_POINT ( 'NONE',  ( 0.000000000000000000, 0.000000000000000000, 3.000000000000000000 ) ) ;
#183 = EDGE_CURVE ( 'NONE', #231, #27, #132, .T. ) ;
#184 = CYLINDRICAL_SURFACE ( 'NONE', #192, 4.000000000000000000 ) ;
#185 = APPLICATION_PROTOCOL_DEFINITION ( 'international standard', 'config_control_design', 1994, #40 ) ;
#186 = ADVANCED_FACE ( 'NONE', ( #106 ), #33, .T. ) ;
#187 = ORIENTED_EDGE ( 'NONE', *, *, #233, .F. ) ;
#188 = DIRECTION ( 'NONE',  ( 0.000000000000000000, 0.000000000000000000, 1.000000000000000000 ) ) ;
#189 = ADVANCED_BREP_SHAPE_REPRESENTATION ( 'ef51', ( #76, #122 ), #254 ) ;
#190 = ORIENTED_EDGE ( 'NONE', *, *, #23, .T. ) ;
#191 = AXIS2_PLACEMENT_3D ( 'NONE', #144, #37, #59 ) ;
#192 = AXIS2_PLACEMENT_3D ( 'NONE', #165, #49, #44 ) ;
#193 = PERSON_AND_ORGANIZATION ( #3, #63 ) ;
#194 = PERSON_AND_ORGANIZATION ( #3, #63 ) ;
#195 = PERSON_AND_ORGANIZATION_ROLE ( 'classification_officer' ) ;
#196 = CARTESIAN_POINT ( 'NONE',  ( 0.000000000000000000, 0.000000000000000000, 0.000000000000000000 ) ) ;
#197 = PERSON_AND_ORGANIZATION ( #3, #63 ) ;
#198 = ORIENTED_EDGE ( 'NONE', *, *, #64, .F. ) ;
#199 = EDGE_CURVE ( 'NONE', #67, #36, #42, .T. ) ;
#200 = ORIENTED_EDGE ( 'NONE', *, *, #12, .F. ) ;
#201 = ORIENTED_EDGE ( 'NONE', *, *, #97, .F. ) ;
#202 = ORIENTED_EDGE ( 'NONE', *, *, #55, .F. ) ;
#203 = CARTESIAN_POINT ( 'NONE',  ( -2.100000000000000089, 0.000000000000000000, 400.0000000000000000 ) ) ;
#204 = FACE_OUTER_BOUND ( 'NONE', #68, .T. ) ;
#205 = CARTESIAN_POINT ( 'NONE',  ( -4.000000000000000000, 0.000000000000000000, 3.000000000000000000 ) ) ;
#206 = DIRECTION ( 'NONE',  ( 0.000000000000000000, 0.000000000000000000, 1.000000000000000000 ) ) ;
#207 = DIRECTION ( 'NONE',  ( 0.000000000000000000, 0.000000000000000000, 1.000000000000000000 ) ) ;
#208 = PLANE ( 'NONE',  #223 ) ;
#209 = APPROVAL ( #93, 'NEURÈENÝ' ) ;
#210 =( NAMED_UNIT ( * ) PLANE_ANGLE_UNIT ( ) SI_UNIT ( $, .RADIAN. ) );
#211 = AXIS2_PLACEMENT_3D ( 'NONE', #14, #188, #171 ) ;
#212 = CIRCLE ( 'NONE', #219, 2.100000000000000089 ) ;
#213 = PERSON_AND_ORGANIZATION_ROLE ( 'design_supplier' ) ;
#214 = EDGE_CURVE ( 'NONE', #36, #67, #251, .T. ) ;
#215 = ORIENTED_EDGE ( 'NONE', *, *, #183, .T. ) ;
#216 = ORIENTED_EDGE ( 'NONE', *, *, #199, .T. ) ;
#217 = FACE_OUTER_BOUND ( 'NONE', #237, .T. ) ;
#218 = CARTESIAN_POINT ( 'NONE',  ( 0.000000000000000000, 0.000000000000000000, 0.000000000000000000 ) ) ;
#219 = AXIS2_PLACEMENT_3D ( 'NONE', #51, #145, #252 ) ;
#220 = AXIS2_PLACEMENT_3D ( 'NONE', #77, #74, #253 ) ;
#221 =( LENGTH_UNIT ( ) NAMED_UNIT ( * ) SI_UNIT ( .MILLI., .METRE. ) );
#222 = DIRECTION ( 'NONE',  ( 1.000000000000000000, 0.000000000000000000, 0.000000000000000000 ) ) ;
#223 = AXIS2_PLACEMENT_3D ( 'NONE', #103, #207, #82 ) ;
#224 = CC_DESIGN_DATE_AND_TIME_ASSIGNMENT ( #19, #109, ( #80 ) ) ;
#225 = CARTESIAN_POINT ( 'NONE',  ( 0.000000000000000000, 0.000000000000000000, 3.000000000000000000 ) ) ;
#226 = CIRCLE ( 'NONE', #244, 4.000000000000000000 ) ;
#227 = SECURITY_CLASSIFICATION_LEVEL ( 'unclassified' ) ;
#228 = DIRECTION ( 'NONE',  ( -1.000000000000000000, 0.000000000000000000, 0.000000000000000000 ) ) ;
#229 = ORIENTED_EDGE ( 'NONE', *, *, #97, .T. ) ;
#230 = SHAPE_DEFINITION_REPRESENTATION ( #83, #189 ) ;
#231 = VERTEX_POINT ( 'NONE', #54 ) ;
#232 = EDGE_LOOP ( 'NONE', ( #114, #78 ) ) ;
#233 = EDGE_CURVE ( 'NONE', #163, #158, #226, .T. ) ;
#234 = DIRECTION ( 'NONE',  ( -0.000000000000000000, -0.000000000000000000, -1.000000000000000000 ) ) ;
#235 = DIRECTION ( 'NONE',  ( -0.000000000000000000, -0.000000000000000000, -1.000000000000000000 ) ) ;
#236 = APPROVAL ( #38, 'NEURÈENÝ' ) ;
#237 = EDGE_LOOP ( 'NONE', ( #25, #164, #126, #161 ) ) ;
#238 = AXIS2_PLACEMENT_3D ( 'NONE', #182, #5, #71 ) ;
#239 = APPROVAL_ROLE ( '' ) ;
#240 = APPLICATION_PROTOCOL_DEFINITION ( 'international standard', 'config_control_design', 1994, #10 ) ;
#241 = CALENDAR_DATE ( 2023, 12, 2 ) ;
#242 = CC_DESIGN_SECURITY_CLASSIFICATION ( #119, ( #107 ) ) ;
#243 = COORDINATED_UNIVERSAL_TIME_OFFSET ( 1, 0, .AHEAD. ) ;
#244 = AXIS2_PLACEMENT_3D ( 'NONE', #11, #124, #169 ) ;
#245 = ORIENTED_EDGE ( 'NONE', *, *, #55, .T. ) ;
#246 = DATE_AND_TIME ( #115, #52 ) ;
#247 = DIRECTION ( 'NONE',  ( -0.000000000000000000, -0.000000000000000000, -1.000000000000000000 ) ) ;
#248 = DATE_TIME_ROLE ( 'classification_date' ) ;
#249 = DIRECTION ( 'NONE',  ( 1.000000000000000000, 0.000000000000000000, -0.000000000000000000 ) ) ;
#250 = DIRECTION ( 'NONE',  ( -0.000000000000000000, -0.000000000000000000, -1.000000000000000000 ) ) ;
#251 = CIRCLE ( 'NONE', #152, 2.100000000000000089 ) ;
#252 = DIRECTION ( 'NONE',  ( 1.000000000000000000, 0.000000000000000000, 0.000000000000000000 ) ) ;
#253 = DIRECTION ( 'NONE',  ( -1.000000000000000000, 0.000000000000000000, 0.000000000000000000 ) ) ;
#254 =( GEOMETRIC_REPRESENTATION_CONTEXT ( 3 ) GLOBAL_UNCERTAINTY_ASSIGNED_CONTEXT ( ( #96 ) ) GLOBAL_UNIT_ASSIGNED_CONTEXT ( ( #221, #210, #105 ) ) REPRESENTATION_CONTEXT ( 'NONE', 'WORKASPACE' ) );
#255 = COORDINATED_UNIVERSAL_TIME_OFFSET ( 1, 0, .AHEAD. ) ;
ENDSEC;
END-ISO-10303-21;
