ISO-10303-21;
HEADER;
FILE_DESCRIPTION (( 'STEP AP203' ),
    '1' );
FILE_NAME ('20d0.STEP',
    '2023-02-12T12:55:56',
    ( '' ),
    ( '' ),
    'SwSTEP 2.0',
    'SolidWorks 2019',
    '' );
FILE_SCHEMA (( 'CONFIG_CONTROL_DESIGN' ));
ENDSEC;

DATA;
#1 = AXIS2_PLACEMENT_3D ( 'NONE', #71, #149, #104 ) ;
#2 = VERTEX_POINT ( 'NONE', #177 ) ;
#3 = APPROVAL_DATE_TIME ( #153, #211 ) ;
#4 = EDGE_CURVE ( 'NONE', #197, #176, #202, .T. ) ;
#5 = CARTESIAN_POINT ( 'NONE',  ( 0.000000000000000000, 0.000000000000000000, 0.000000000000000000 ) ) ;
#6 = VECTOR ( 'NONE', #248, 1000.000000000000000 ) ;
#7 = AXIS2_PLACEMENT_3D ( 'NONE', #180, #32, #109 ) ;
#8 =( LENGTH_UNIT ( ) NAMED_UNIT ( * ) SI_UNIT ( .MILLI., .METRE. ) );
#9 =( NAMED_UNIT ( * ) SI_UNIT ( $, .STERADIAN. ) SOLID_ANGLE_UNIT ( ) );
#10 = LOCAL_TIME ( 13, 55, 56.00000000000000000, #136 ) ;
#11 = SECURITY_CLASSIFICATION ( '', '', #100 ) ;
#12 = LINE ( 'NONE', #112, #133 ) ;
#13 = PLANE ( 'NONE',  #220 ) ;
#14 = EDGE_CURVE ( 'NONE', #194, #144, #226, .T. ) ;
#15 = CARTESIAN_POINT ( 'NONE',  ( 0.000000000000000000, 0.000000000000000000, 1.500000000000000000 ) ) ;
#16 = DATE_AND_TIME ( #57, #134 ) ;
#17 = ORIENTED_EDGE ( 'NONE', *, *, #138, .F. ) ;
#18 = SHAPE_DEFINITION_REPRESENTATION ( #243, #143 ) ;
#19 = CC_DESIGN_PERSON_AND_ORGANIZATION_ASSIGNMENT ( #159, #234, ( #231 ) ) ;
#20 = CARTESIAN_POINT ( 'NONE',  ( 0.000000000000000000, 0.000000000000000000, 1.500000000000000000 ) ) ;
#21 = ORIENTED_EDGE ( 'NONE', *, *, #110, .F. ) ;
#22 = ORIENTED_EDGE ( 'NONE', *, *, #4, .F. ) ;
#23 = DIRECTION ( 'NONE',  ( 1.000000000000000000, 0.000000000000000000, 0.000000000000000000 ) ) ;
#24 = CALENDAR_DATE ( 2023, 12, 2 ) ;
#25 = DIRECTION ( 'NONE',  ( 0.000000000000000000, 0.000000000000000000, 1.000000000000000000 ) ) ;
#26 = APPLICATION_CONTEXT ( 'configuration controlled 3d designs of mechanical parts and assemblies' ) ;
#27 = FACE_OUTER_BOUND ( 'NONE', #35, .T. ) ;
#28 = DIRECTION ( 'NONE',  ( 1.000000000000000000, 0.000000000000000000, 0.000000000000000000 ) ) ;
#29 = LINE ( 'NONE', #80, #148 ) ;
#30 = ORGANIZATION ( 'NEURÈENÝ', 'NEURÈENÝ', '' ) ;
#31 = COORDINATED_UNIVERSAL_TIME_OFFSET ( 1, 0, .AHEAD. ) ;
#32 = DIRECTION ( 'NONE',  ( 0.000000000000000000, 0.000000000000000000, 1.000000000000000000 ) ) ;
#33 = DATE_AND_TIME ( #68, #152 ) ;
#34 = AXIS2_PLACEMENT_3D ( 'NONE', #210, #25, #66 ) ;
#35 = EDGE_LOOP ( 'NONE', ( #46, #241 ) ) ;
#36 =( GEOMETRIC_REPRESENTATION_CONTEXT ( 3 ) GLOBAL_UNCERTAINTY_ASSIGNED_CONTEXT ( ( #174 ) ) GLOBAL_UNIT_ASSIGNED_CONTEXT ( ( #8, #221, #9 ) ) REPRESENTATION_CONTEXT ( 'NONE', 'WORKASPACE' ) );
#37 = FACE_OUTER_BOUND ( 'NONE', #160, .T. ) ;
#38 = PERSON_AND_ORGANIZATION ( #47, #30 ) ;
#39 = ORIENTED_EDGE ( 'NONE', *, *, #156, .F. ) ;
#40 = CARTESIAN_POINT ( 'NONE',  ( 0.8000000000000000444, 9.797174393178826150E-17, 1.500000000000000000 ) ) ;
#41 = ORIENTED_EDGE ( 'NONE', *, *, #252, .T. ) ;
#42 = CC_DESIGN_APPROVAL ( #113, ( #11 ) ) ;
#43 = VERTEX_POINT ( 'NONE', #79 ) ;
#44 = APPROVAL_ROLE ( '' ) ;
#45 = EDGE_CURVE ( 'NONE', #176, #2, #81, .T. ) ;
#46 = ORIENTED_EDGE ( 'NONE', *, *, #123, .F. ) ;
#47 = PERSON ( 'NEURÈENÝ', 'NEURÈENÝ', 'NEURÈENÝ', ('NEURÈENÝ'), ('NEURÈENÝ'), ('NEURÈENÝ') ) ;
#48 = ADVANCED_FACE ( 'NONE', ( #86, #170 ), #128, .T. ) ;
#49 = PERSON_AND_ORGANIZATION ( #47, #30 ) ;
#50 = DIRECTION ( 'NONE',  ( -0.000000000000000000, -0.000000000000000000, -1.000000000000000000 ) ) ;
#51 = DIRECTION ( 'NONE',  ( 1.000000000000000000, 0.000000000000000000, 0.000000000000000000 ) ) ;
#52 = CLOSED_SHELL ( 'NONE', ( #228, #173, #165, #48, #69, #106, #84 ) ) ;
#53 = APPROVAL_ROLE ( '' ) ;
#54 = DIRECTION ( 'NONE',  ( 0.000000000000000000, 0.000000000000000000, 1.000000000000000000 ) ) ;
#55 = CARTESIAN_POINT ( 'NONE',  ( 0.8000000000000000444, 9.797174393178826150E-17, 125.0000000000000000 ) ) ;
#56 = CARTESIAN_POINT ( 'NONE',  ( 0.000000000000000000, 0.000000000000000000, 1.500000000000000000 ) ) ;
#57 = CALENDAR_DATE ( 2023, 12, 2 ) ;
#58 = CC_DESIGN_APPROVAL ( #237, ( #89 ) ) ;
#59 = FACE_OUTER_BOUND ( 'NONE', #117, .T. ) ;
#60 = ORIENTED_EDGE ( 'NONE', *, *, #123, .T. ) ;
#61 = PERSON_AND_ORGANIZATION ( #47, #30 ) ;
#62 = EDGE_LOOP ( 'NONE', ( #41, #242 ) ) ;
#63 = PRODUCT ( '20d0', '20d0', '', ( #245 ) ) ;
#64 = DIRECTION ( 'NONE',  ( 1.000000000000000000, 0.000000000000000000, 0.000000000000000000 ) ) ;
#65 = ORIENTED_EDGE ( 'NONE', *, *, #45, .F. ) ;
#66 = DIRECTION ( 'NONE',  ( 1.000000000000000000, 0.000000000000000000, 0.000000000000000000 ) ) ;
#67 = CARTESIAN_POINT ( 'NONE',  ( 0.000000000000000000, 0.000000000000000000, 125.0000000000000000 ) ) ;
#68 = CALENDAR_DATE ( 2023, 12, 2 ) ;
#69 = ADVANCED_FACE ( 'NONE', ( #27 ), #125, .F. ) ;
#70 = AXIS2_PLACEMENT_3D ( 'NONE', #99, #175, #155 ) ;
#71 = CARTESIAN_POINT ( 'NONE',  ( 0.000000000000000000, 0.000000000000000000, 1.500000000000000000 ) ) ;
#72 = DATE_AND_TIME ( #171, #240 ) ;
#73 = DESIGN_CONTEXT ( 'detailed design', #26, 'design' ) ;
#74 = EDGE_LOOP ( 'NONE', ( #21, #199, #182, #141 ) ) ;
#75 = EDGE_CURVE ( 'NONE', #166, #120, #78, .T. ) ;
#76 = APPROVAL_ROLE ( '' ) ;
#77 = AXIS2_PLACEMENT_3D ( 'NONE', #244, #150, #253 ) ;
#78 = CIRCLE ( 'NONE', #1, 0.8000000000000000444 ) ;
#79 = CARTESIAN_POINT ( 'NONE',  ( 1.500000000000000222, 1.836970198721030181E-16, 0.000000000000000000 ) ) ;
#80 = CARTESIAN_POINT ( 'NONE',  ( -0.8000000000000000444, 0.000000000000000000, 125.0000000000000000 ) ) ;
#81 = LINE ( 'NONE', #157, #200 ) ;
#82 = APPLICATION_PROTOCOL_DEFINITION ( 'international standard', 'config_control_design', 1994, #26 ) ;
#83 = PERSON_AND_ORGANIZATION_ROLE ( 'design_supplier' ) ;
#84 = ADVANCED_FACE ( 'NONE', ( #37 ), #13, .T. ) ;
#85 = CARTESIAN_POINT ( 'NONE',  ( -0.8000000000000000444, 0.000000000000000000, 125.0000000000000000 ) ) ;
#86 = FACE_BOUND ( 'NONE', #137, .T. ) ;
#87 = COORDINATED_UNIVERSAL_TIME_OFFSET ( 1, 0, .AHEAD. ) ;
#88 = APPLICATION_PROTOCOL_DEFINITION ( 'international standard', 'config_control_design', 1994, #209 ) ;
#89 = PRODUCT_DEFINITION ( 'NEZNÁMÝ', '', #231, #73 ) ;
#90 = ORIENTED_EDGE ( 'NONE', *, *, #162, .F. ) ;
#91 = DATE_TIME_ROLE ( 'creation_date' ) ;
#92 = APPROVAL_STATUS ( 'not_yet_approved' ) ;
#93 = CC_DESIGN_PERSON_AND_ORGANIZATION_ASSIGNMENT ( #61, #96, ( #11 ) ) ;
#94 = AXIS2_PLACEMENT_3D ( 'NONE', #204, #229, #222 ) ;
#95 = DIRECTION ( 'NONE',  ( -0.000000000000000000, -0.000000000000000000, -1.000000000000000000 ) ) ;
#96 = PERSON_AND_ORGANIZATION_ROLE ( 'classification_officer' ) ;
#97 = DIRECTION ( 'NONE',  ( 0.000000000000000000, 0.000000000000000000, 1.000000000000000000 ) ) ;
#98 = APPROVAL_STATUS ( 'not_yet_approved' ) ;
#99 = CARTESIAN_POINT ( 'NONE',  ( 0.000000000000000000, 0.000000000000000000, 125.0000000000000000 ) ) ;
#100 = SECURITY_CLASSIFICATION_LEVEL ( 'unclassified' ) ;
#101 = DIRECTION ( 'NONE',  ( 1.000000000000000000, 0.000000000000000000, -0.000000000000000000 ) ) ;
#102 = DIRECTION ( 'NONE',  ( -0.000000000000000000, -0.000000000000000000, -1.000000000000000000 ) ) ;
#103 = AXIS2_PLACEMENT_3D ( 'NONE', #178, #102, #145 ) ;
#104 = DIRECTION ( 'NONE',  ( 1.000000000000000000, 0.000000000000000000, 0.000000000000000000 ) ) ;
#105 = AXIS2_PLACEMENT_3D ( 'NONE', #246, #107, #28 ) ;
#106 = ADVANCED_FACE ( 'NONE', ( #236 ), #196, .T. ) ;
#107 = DIRECTION ( 'NONE',  ( 0.000000000000000000, 0.000000000000000000, 1.000000000000000000 ) ) ;
#108 = CYLINDRICAL_SURFACE ( 'NONE', #168, 0.8000000000000000444 ) ;
#109 = DIRECTION ( 'NONE',  ( 1.000000000000000000, 0.000000000000000000, 0.000000000000000000 ) ) ;
#110 = EDGE_CURVE ( 'NONE', #144, #166, #181, .T. ) ;
#111 = AXIS2_PLACEMENT_3D ( 'NONE', #224, #54, #51 ) ;
#112 = CARTESIAN_POINT ( 'NONE',  ( 1.500000000000000222, 1.836970198721030181E-16, 1.500000000000000000 ) ) ;
#113 = APPROVAL ( #98, 'NEURÈENÝ' ) ;
#114 = DATE_TIME_ROLE ( 'classification_date' ) ;
#115 = CIRCLE ( 'NONE', #227, 0.8000000000000000444 ) ;
#116 = CC_DESIGN_PERSON_AND_ORGANIZATION_ASSIGNMENT ( #169, #230, ( #89 ) ) ;
#117 = EDGE_LOOP ( 'NONE', ( #17, #135, #142, #60 ) ) ;
#118 = DATE_AND_TIME ( #216, #10 ) ;
#119 = CC_DESIGN_APPROVAL ( #211, ( #231 ) ) ;
#120 = VERTEX_POINT ( 'NONE', #208 ) ;
#121 = ORIENTED_EDGE ( 'NONE', *, *, #138, .T. ) ;
#122 = DIRECTION ( 'NONE',  ( -1.000000000000000000, 0.000000000000000000, 0.000000000000000000 ) ) ;
#123 = EDGE_CURVE ( 'NONE', #2, #43, #213, .T. ) ;
#124 = ORIENTED_EDGE ( 'NONE', *, *, #75, .T. ) ;
#125 = PLANE ( 'NONE',  #94 ) ;
#126 = LOCAL_TIME ( 13, 55, 56.00000000000000000, #254 ) ;
#127 = CARTESIAN_POINT ( 'NONE',  ( 0.000000000000000000, 0.000000000000000000, 125.0000000000000000 ) ) ;
#128 = PLANE ( 'NONE',  #77 ) ;
#129 = APPROVAL_DATE_TIME ( #33, #237 ) ;
#130 = PRODUCT_RELATED_PRODUCT_CATEGORY ( 'detail', '', ( #63 ) ) ;
#131 = DIRECTION ( 'NONE',  ( -0.000000000000000000, -0.000000000000000000, -1.000000000000000000 ) ) ;
#132 = CC_DESIGN_PERSON_AND_ORGANIZATION_ASSIGNMENT ( #38, #83, ( #231 ) ) ;
#133 = VECTOR ( 'NONE', #95, 1000.000000000000000 ) ;
#134 = LOCAL_TIME ( 13, 55, 56.00000000000000000, #232 ) ;
#135 = ORIENTED_EDGE ( 'NONE', *, *, #252, .F. ) ;
#136 = COORDINATED_UNIVERSAL_TIME_OFFSET ( 1, 0, .AHEAD. ) ;
#137 = EDGE_LOOP ( 'NONE', ( #201, #146 ) ) ;
#138 = EDGE_CURVE ( 'NONE', #197, #43, #12, .T. ) ;
#139 = CYLINDRICAL_SURFACE ( 'NONE', #186, 1.500000000000000222 ) ;
#140 = ORIENTED_EDGE ( 'NONE', *, *, #110, .T. ) ;
#141 = ORIENTED_EDGE ( 'NONE', *, *, #183, .T. ) ;
#142 = ORIENTED_EDGE ( 'NONE', *, *, #45, .T. ) ;
#143 = ADVANCED_BREP_SHAPE_REPRESENTATION ( '20d0', ( #251, #214 ), #36 ) ;
#144 = VERTEX_POINT ( 'NONE', #55 ) ;
#145 = DIRECTION ( 'NONE',  ( -1.000000000000000000, 0.000000000000000000, 0.000000000000000000 ) ) ;
#146 = ORIENTED_EDGE ( 'NONE', *, *, #75, .F. ) ;
#147 = CIRCLE ( 'NONE', #34, 0.8000000000000000444 ) ;
#148 = VECTOR ( 'NONE', #235, 1000.000000000000000 ) ;
#149 = DIRECTION ( 'NONE',  ( 0.000000000000000000, 0.000000000000000000, 1.000000000000000000 ) ) ;
#150 = DIRECTION ( 'NONE',  ( 0.000000000000000000, 0.000000000000000000, 1.000000000000000000 ) ) ;
#151 = CYLINDRICAL_SURFACE ( 'NONE', #250, 1.500000000000000222 ) ;
#152 = LOCAL_TIME ( 13, 55, 56.00000000000000000, #87 ) ;
#153 = DATE_AND_TIME ( #24, #126 ) ;
#154 = APPROVAL_PERSON_ORGANIZATION ( #187, #113, #76 ) ;
#155 = DIRECTION ( 'NONE',  ( 1.000000000000000000, 0.000000000000000000, 0.000000000000000000 ) ) ;
#156 = EDGE_CURVE ( 'NONE', #144, #194, #147, .T. ) ;
#157 = CARTESIAN_POINT ( 'NONE',  ( -1.500000000000000222, 0.000000000000000000, 1.500000000000000000 ) ) ;
#158 = DIRECTION ( 'NONE',  ( 0.000000000000000000, 0.000000000000000000, 1.000000000000000000 ) ) ;
#159 = PERSON_AND_ORGANIZATION ( #47, #30 ) ;
#160 = EDGE_LOOP ( 'NONE', ( #161, #212 ) ) ;
#161 = ORIENTED_EDGE ( 'NONE', *, *, #14, .T. ) ;
#162 = EDGE_CURVE ( 'NONE', #194, #120, #29, .T. ) ;
#163 = CARTESIAN_POINT ( 'NONE',  ( 1.500000000000000222, 1.836970198721030181E-16, 1.500000000000000000 ) ) ;
#164 = PERSON_AND_ORGANIZATION_ROLE ( 'design_owner' ) ;
#165 = ADVANCED_FACE ( 'NONE', ( #59 ), #139, .T. ) ;
#166 = VERTEX_POINT ( 'NONE', #40 ) ;
#167 = CC_DESIGN_PERSON_AND_ORGANIZATION_ASSIGNMENT ( #223, #164, ( #63 ) ) ;
#168 = AXIS2_PLACEMENT_3D ( 'NONE', #127, #50, #122 ) ;
#169 = PERSON_AND_ORGANIZATION ( #47, #30 ) ;
#170 = FACE_OUTER_BOUND ( 'NONE', #62, .T. ) ;
#171 = CALENDAR_DATE ( 2023, 12, 2 ) ;
#172 = APPROVAL_PERSON_ORGANIZATION ( #225, #211, #53 ) ;
#173 = ADVANCED_FACE ( 'NONE', ( #198 ), #151, .T. ) ;
#174 = UNCERTAINTY_MEASURE_WITH_UNIT (LENGTH_MEASURE( 1.000000000000000082E-05 ), #8, 'distance_accuracy_value', 'NONE');
#175 = DIRECTION ( 'NONE',  ( 0.000000000000000000, 0.000000000000000000, 1.000000000000000000 ) ) ;
#176 = VERTEX_POINT ( 'NONE', #192 ) ;
#177 = CARTESIAN_POINT ( 'NONE',  ( -1.500000000000000222, 0.000000000000000000, 0.000000000000000000 ) ) ;
#178 = CARTESIAN_POINT ( 'NONE',  ( 0.000000000000000000, 0.000000000000000000, 125.0000000000000000 ) ) ;
#179 = CC_DESIGN_DATE_AND_TIME_ASSIGNMENT ( #72, #91, ( #89 ) ) ;
#180 = CARTESIAN_POINT ( 'NONE',  ( 0.000000000000000000, 0.000000000000000000, 0.000000000000000000 ) ) ;
#181 = LINE ( 'NONE', #205, #6 ) ;
#182 = ORIENTED_EDGE ( 'NONE', *, *, #162, .T. ) ;
#183 = EDGE_CURVE ( 'NONE', #120, #166, #115, .T. ) ;
#184 = CARTESIAN_POINT ( 'NONE',  ( 0.000000000000000000, 0.000000000000000000, 1.500000000000000000 ) ) ;
#185 = AXIS2_PLACEMENT_3D ( 'NONE', #15, #97, #217 ) ;
#186 = AXIS2_PLACEMENT_3D ( 'NONE', #184, #249, #215 ) ;
#187 = PERSON_AND_ORGANIZATION ( #47, #30 ) ;
#188 = EDGE_CURVE ( 'NONE', #43, #2, #207, .T. ) ;
#189 = DIRECTION ( 'NONE',  ( -1.000000000000000000, 0.000000000000000000, 0.000000000000000000 ) ) ;
#190 = APPROVAL_DATE_TIME ( #118, #113 ) ;
#191 = EDGE_LOOP ( 'NONE', ( #22, #121, #195, #65 ) ) ;
#192 = CARTESIAN_POINT ( 'NONE',  ( -1.500000000000000222, 0.000000000000000000, 1.500000000000000000 ) ) ;
#193 = CC_DESIGN_SECURITY_CLASSIFICATION ( #11, ( #231 ) ) ;
#194 = VERTEX_POINT ( 'NONE', #85 ) ;
#195 = ORIENTED_EDGE ( 'NONE', *, *, #188, .T. ) ;
#196 = CYLINDRICAL_SURFACE ( 'NONE', #103, 0.8000000000000000444 ) ;
#197 = VERTEX_POINT ( 'NONE', #163 ) ;
#198 = FACE_OUTER_BOUND ( 'NONE', #191, .T. ) ;
#199 = ORIENTED_EDGE ( 'NONE', *, *, #14, .F. ) ;
#200 = VECTOR ( 'NONE', #219, 1000.000000000000000 ) ;
#201 = ORIENTED_EDGE ( 'NONE', *, *, #183, .F. ) ;
#202 = CIRCLE ( 'NONE', #185, 1.500000000000000222 ) ;
#203 = CIRCLE ( 'NONE', #105, 1.500000000000000222 ) ;
#204 = CARTESIAN_POINT ( 'NONE',  ( 0.000000000000000000, 0.000000000000000000, 0.000000000000000000 ) ) ;
#205 = CARTESIAN_POINT ( 'NONE',  ( 0.8000000000000000444, 9.797174393178826150E-17, 125.0000000000000000 ) ) ;
#206 = EDGE_LOOP ( 'NONE', ( #39, #140, #124, #90 ) ) ;
#207 = CIRCLE ( 'NONE', #7, 1.500000000000000222 ) ;
#208 = CARTESIAN_POINT ( 'NONE',  ( -0.8000000000000000444, 0.000000000000000000, 1.500000000000000000 ) ) ;
#209 = APPLICATION_CONTEXT ( 'configuration controlled 3d designs of mechanical parts and assemblies' ) ;
#210 = CARTESIAN_POINT ( 'NONE',  ( 0.000000000000000000, 0.000000000000000000, 125.0000000000000000 ) ) ;
#211 = APPROVAL ( #92, 'NEURÈENÝ' ) ;
#212 = ORIENTED_EDGE ( 'NONE', *, *, #156, .T. ) ;
#213 = CIRCLE ( 'NONE', #111, 1.500000000000000222 ) ;
#214 = AXIS2_PLACEMENT_3D ( 'NONE', #5, #238, #64 ) ;
#215 = DIRECTION ( 'NONE',  ( -1.000000000000000000, 0.000000000000000000, 0.000000000000000000 ) ) ;
#216 = CALENDAR_DATE ( 2023, 12, 2 ) ;
#217 = DIRECTION ( 'NONE',  ( 1.000000000000000000, 0.000000000000000000, 0.000000000000000000 ) ) ;
#218 = APPROVAL_STATUS ( 'not_yet_approved' ) ;
#219 = DIRECTION ( 'NONE',  ( -0.000000000000000000, -0.000000000000000000, -1.000000000000000000 ) ) ;
#220 = AXIS2_PLACEMENT_3D ( 'NONE', #67, #158, #101 ) ;
#221 =( NAMED_UNIT ( * ) PLANE_ANGLE_UNIT ( ) SI_UNIT ( $, .RADIAN. ) );
#222 = DIRECTION ( 'NONE',  ( 1.000000000000000000, 0.000000000000000000, -0.000000000000000000 ) ) ;
#223 = PERSON_AND_ORGANIZATION ( #47, #30 ) ;
#224 = CARTESIAN_POINT ( 'NONE',  ( 0.000000000000000000, 0.000000000000000000, 0.000000000000000000 ) ) ;
#225 = PERSON_AND_ORGANIZATION ( #47, #30 ) ;
#226 = CIRCLE ( 'NONE', #70, 0.8000000000000000444 ) ;
#227 = AXIS2_PLACEMENT_3D ( 'NONE', #20, #239, #23 ) ;
#228 = ADVANCED_FACE ( 'NONE', ( #247 ), #108, .T. ) ;
#229 = DIRECTION ( 'NONE',  ( 0.000000000000000000, 0.000000000000000000, 1.000000000000000000 ) ) ;
#230 = PERSON_AND_ORGANIZATION_ROLE ( 'creator' ) ;
#231 = PRODUCT_DEFINITION_FORMATION_WITH_SPECIFIED_SOURCE ( 'LIBOVOLNÝ', '', #63, .NOT_KNOWN. ) ;
#232 = COORDINATED_UNIVERSAL_TIME_OFFSET ( 1, 0, .AHEAD. ) ;
#233 = APPROVAL_PERSON_ORGANIZATION ( #49, #237, #44 ) ;
#234 = PERSON_AND_ORGANIZATION_ROLE ( 'creator' ) ;
#235 = DIRECTION ( 'NONE',  ( -0.000000000000000000, -0.000000000000000000, -1.000000000000000000 ) ) ;
#236 = FACE_OUTER_BOUND ( 'NONE', #74, .T. ) ;
#237 = APPROVAL ( #218, 'NEURÈENÝ' ) ;
#238 = DIRECTION ( 'NONE',  ( 0.000000000000000000, 0.000000000000000000, 1.000000000000000000 ) ) ;
#239 = DIRECTION ( 'NONE',  ( 0.000000000000000000, 0.000000000000000000, 1.000000000000000000 ) ) ;
#240 = LOCAL_TIME ( 13, 55, 56.00000000000000000, #31 ) ;
#241 = ORIENTED_EDGE ( 'NONE', *, *, #188, .F. ) ;
#242 = ORIENTED_EDGE ( 'NONE', *, *, #4, .T. ) ;
#243 = PRODUCT_DEFINITION_SHAPE ( 'NONE', 'NONE',  #89 ) ;
#244 = CARTESIAN_POINT ( 'NONE',  ( 0.000000000000000000, 0.000000000000000000, 1.500000000000000000 ) ) ;
#245 = MECHANICAL_CONTEXT ( 'NONE', #209, 'mechanical' ) ;
#246 = CARTESIAN_POINT ( 'NONE',  ( 0.000000000000000000, 0.000000000000000000, 1.500000000000000000 ) ) ;
#247 = FACE_OUTER_BOUND ( 'NONE', #206, .T. ) ;
#248 = DIRECTION ( 'NONE',  ( -0.000000000000000000, -0.000000000000000000, -1.000000000000000000 ) ) ;
#249 = DIRECTION ( 'NONE',  ( -0.000000000000000000, -0.000000000000000000, -1.000000000000000000 ) ) ;
#250 = AXIS2_PLACEMENT_3D ( 'NONE', #56, #131, #189 ) ;
#251 = MANIFOLD_SOLID_BREP ( 'Pøidat vysunutím3', #52 ) ;
#252 = EDGE_CURVE ( 'NONE', #176, #197, #203, .T. ) ;
#253 = DIRECTION ( 'NONE',  ( 1.000000000000000000, 0.000000000000000000, -0.000000000000000000 ) ) ;
#254 = COORDINATED_UNIVERSAL_TIME_OFFSET ( 1, 0, .AHEAD. ) ;
#255 = CC_DESIGN_DATE_AND_TIME_ASSIGNMENT ( #16, #114, ( #11 ) ) ;
ENDSEC;
END-ISO-10303-21;
