ISO-10303-21;
HEADER;
FILE_DESCRIPTION (( 'STEP AP203' ),
    '1' );
FILE_NAME ('5b96.STEP',
    '2023-02-12T11:48:31',
    ( '' ),
    ( '' ),
    'SwSTEP 2.0',
    'SolidWorks 2019',
    '' );
FILE_SCHEMA (( 'CONFIG_CONTROL_DESIGN' ));
ENDSEC;

DATA;
#1 = ADVANCED_FACE ( 'NONE', ( #124, #68 ), #149, .T. ) ;
#2 = SECURITY_CLASSIFICATION_LEVEL ( 'unclassified' ) ;
#3 = ORIENTED_EDGE ( 'NONE', *, *, #198, .F. ) ;
#4 = ORIENTED_EDGE ( 'NONE', *, *, #156, .F. ) ;
#5 = APPROVAL ( #208, 'NEURÈENÝ' ) ;
#6 = EDGE_LOOP ( 'NONE', ( #42, #85 ) ) ;
#7 = DIRECTION ( 'NONE',  ( -1.000000000000000000, 0.000000000000000000, 0.000000000000000000 ) ) ;
#8 = CARTESIAN_POINT ( 'NONE',  ( -4.000000000000000000, 0.000000000000000000, 315.0000000000000000 ) ) ;
#9 = CARTESIAN_POINT ( 'NONE',  ( 4.000000000000000000, 4.898587196589412829E-16, 5.000000000000000000 ) ) ;
#10 = DIRECTION ( 'NONE',  ( -0.000000000000000000, -0.000000000000000000, -1.000000000000000000 ) ) ;
#11 = ADVANCED_FACE ( 'NONE', ( #146 ), #179, .T. ) ;
#12 = CARTESIAN_POINT ( 'NONE',  ( 0.000000000000000000, 0.000000000000000000, 5.000000000000000000 ) ) ;
#13 = UNCERTAINTY_MEASURE_WITH_UNIT (LENGTH_MEASURE( 1.000000000000000082E-05 ), #151, 'distance_accuracy_value', 'NONE');
#14 = CARTESIAN_POINT ( 'NONE',  ( 0.000000000000000000, 0.000000000000000000, 5.000000000000000000 ) ) ;
#15 = DIRECTION ( 'NONE',  ( -0.000000000000000000, -0.000000000000000000, -1.000000000000000000 ) ) ;
#16 = CYLINDRICAL_SURFACE ( 'NONE', #84, 4.000000000000000000 ) ;
#17 = AXIS2_PLACEMENT_3D ( 'NONE', #129, #246, #184 ) ;
#18 = APPROVAL ( #116, 'NEURÈENÝ' ) ;
#19 = CIRCLE ( 'NONE', #75, 4.000000000000000000 ) ;
#20 = COORDINATED_UNIVERSAL_TIME_OFFSET ( 1, 0, .AHEAD. ) ;
#21 = ORIENTED_EDGE ( 'NONE', *, *, #46, .F. ) ;
#22 = AXIS2_PLACEMENT_3D ( 'NONE', #105, #181, #145 ) ;
#23 = LOCAL_TIME ( 12, 48, 31.00000000000000000, #192 ) ;
#24 = CC_DESIGN_PERSON_AND_ORGANIZATION_ASSIGNMENT ( #176, #86, ( #79 ) ) ;
#25 = VERTEX_POINT ( 'NONE', #127 ) ;
#26 = CARTESIAN_POINT ( 'NONE',  ( 0.000000000000000000, 0.000000000000000000, 315.0000000000000000 ) ) ;
#27 = ADVANCED_FACE ( 'NONE', ( #48 ), #123, .F. ) ;
#28 = DIRECTION ( 'NONE',  ( -0.000000000000000000, -0.000000000000000000, -1.000000000000000000 ) ) ;
#29 = CARTESIAN_POINT ( 'NONE',  ( 0.000000000000000000, 0.000000000000000000, 0.000000000000000000 ) ) ;
#30 = DIRECTION ( 'NONE',  ( 0.000000000000000000, 0.000000000000000000, 1.000000000000000000 ) ) ;
#31 = VECTOR ( 'NONE', #28, 1000.000000000000000 ) ;
#32 = CYLINDRICAL_SURFACE ( 'NONE', #111, 4.000000000000000000 ) ;
#33 = CARTESIAN_POINT ( 'NONE',  ( 4.000000000000000000, 4.898587196589412829E-16, 315.0000000000000000 ) ) ;
#34 = CYLINDRICAL_SURFACE ( 'NONE', #66, 7.000000000000000000 ) ;
#35 = APPROVAL ( #80, 'NEURÈENÝ' ) ;
#36 = DIRECTION ( 'NONE',  ( -1.000000000000000000, 0.000000000000000000, 0.000000000000000000 ) ) ;
#37 = LOCAL_TIME ( 12, 48, 31.00000000000000000, #168 ) ;
#38 = VECTOR ( 'NONE', #15, 1000.000000000000000 ) ;
#39 = PERSON_AND_ORGANIZATION_ROLE ( 'creator' ) ;
#40 = DIRECTION ( 'NONE',  ( 1.000000000000000000, 0.000000000000000000, 0.000000000000000000 ) ) ;
#41 = DATE_TIME_ROLE ( 'creation_date' ) ;
#42 = ORIENTED_EDGE ( 'NONE', *, *, #112, .F. ) ;
#43 = EDGE_LOOP ( 'NONE', ( #3, #21, #102, #61 ) ) ;
#44 = APPROVAL_DATE_TIME ( #140, #35 ) ;
#45 = ORIENTED_EDGE ( 'NONE', *, *, #95, .T. ) ;
#46 = EDGE_CURVE ( 'NONE', #53, #63, #118, .T. ) ;
#47 = ORIENTED_EDGE ( 'NONE', *, *, #56, .F. ) ;
#48 = FACE_OUTER_BOUND ( 'NONE', #6, .T. ) ;
#49 = ORIENTED_EDGE ( 'NONE', *, *, #186, .F. ) ;
#50 = CC_DESIGN_APPROVAL ( #35, ( #79 ) ) ;
#51 = CARTESIAN_POINT ( 'NONE',  ( -4.000000000000000000, 0.000000000000000000, 5.000000000000000000 ) ) ;
#52 = EDGE_CURVE ( 'NONE', #227, #215, #139, .T. ) ;
#53 = VERTEX_POINT ( 'NONE', #245 ) ;
#54 = CLOSED_SHELL ( 'NONE', ( #193, #11, #182, #1, #27, #163, #121 ) ) ;
#55 = DIRECTION ( 'NONE',  ( 1.000000000000000000, 0.000000000000000000, 0.000000000000000000 ) ) ;
#56 = EDGE_CURVE ( 'NONE', #53, #117, #107, .T. ) ;
#57 = AXIS2_PLACEMENT_3D ( 'NONE', #200, #92, #241 ) ;
#58 = CALENDAR_DATE ( 2023, 12, 2 ) ;
#59 = CC_DESIGN_PERSON_AND_ORGANIZATION_ASSIGNMENT ( #144, #255, ( #131 ) ) ;
#60 = DATE_AND_TIME ( #233, #37 ) ;
#61 = ORIENTED_EDGE ( 'NONE', *, *, #112, .T. ) ;
#62 = PERSON_AND_ORGANIZATION_ROLE ( 'creator' ) ;
#63 = VERTEX_POINT ( 'NONE', #69 ) ;
#64 = AXIS2_PLACEMENT_3D ( 'NONE', #104, #166, #180 ) ;
#65 = ADVANCED_BREP_SHAPE_REPRESENTATION ( '5b96', ( #244, #88 ), #237 ) ;
#66 = AXIS2_PLACEMENT_3D ( 'NONE', #74, #108, #36 ) ;
#67 = DIRECTION ( 'NONE',  ( 1.000000000000000000, 0.000000000000000000, -0.000000000000000000 ) ) ;
#68 = FACE_OUTER_BOUND ( 'NONE', #94, .T. ) ;
#69 = CARTESIAN_POINT ( 'NONE',  ( 7.000000000000000000, 8.572527594031473190E-16, 5.000000000000000000 ) ) ;
#70 = AXIS2_PLACEMENT_3D ( 'NONE', #183, #222, #67 ) ;
#71 = CC_DESIGN_APPROVAL ( #18, ( #131 ) ) ;
#72 = FACE_OUTER_BOUND ( 'NONE', #224, .T. ) ;
#73 = FACE_OUTER_BOUND ( 'NONE', #235, .T. ) ;
#74 = CARTESIAN_POINT ( 'NONE',  ( 0.000000000000000000, 0.000000000000000000, 5.000000000000000000 ) ) ;
#75 = AXIS2_PLACEMENT_3D ( 'NONE', #109, #76, #55 ) ;
#76 = DIRECTION ( 'NONE',  ( 0.000000000000000000, 0.000000000000000000, 1.000000000000000000 ) ) ;
#77 = AXIS2_PLACEMENT_3D ( 'NONE', #242, #150, #203 ) ;
#78 = FACE_OUTER_BOUND ( 'NONE', #138, .T. ) ;
#79 = PRODUCT_DEFINITION_FORMATION_WITH_SPECIFIED_SOURCE ( 'LIBOVOLNÝ', '', #187, .NOT_KNOWN. ) ;
#80 = APPROVAL_STATUS ( 'not_yet_approved' ) ;
#81 = DATE_AND_TIME ( #219, #98 ) ;
#82 = ORIENTED_EDGE ( 'NONE', *, *, #83, .F. ) ;
#83 = EDGE_CURVE ( 'NONE', #119, #161, #174, .T. ) ;
#84 = AXIS2_PLACEMENT_3D ( 'NONE', #188, #132, #169 ) ;
#85 = ORIENTED_EDGE ( 'NONE', *, *, #99, .F. ) ;
#86 = PERSON_AND_ORGANIZATION_ROLE ( 'design_supplier' ) ;
#87 = EDGE_LOOP ( 'NONE', ( #4, #195, #115, #47 ) ) ;
#88 = AXIS2_PLACEMENT_3D ( 'NONE', #113, #185, #110 ) ;
#89 = LINE ( 'NONE', #96, #207 ) ;
#90 = DIRECTION ( 'NONE',  ( 1.000000000000000000, 0.000000000000000000, 0.000000000000000000 ) ) ;
#91 = CC_DESIGN_PERSON_AND_ORGANIZATION_ASSIGNMENT ( #155, #231, ( #187 ) ) ;
#92 = DIRECTION ( 'NONE',  ( 0.000000000000000000, 0.000000000000000000, 1.000000000000000000 ) ) ;
#93 = CARTESIAN_POINT ( 'NONE',  ( -7.000000000000000000, 0.000000000000000000, 0.000000000000000000 ) ) ;
#94 = EDGE_LOOP ( 'NONE', ( #199, #239 ) ) ;
#95 = EDGE_CURVE ( 'NONE', #215, #161, #147, .T. ) ;
#96 = CARTESIAN_POINT ( 'NONE',  ( 4.000000000000000000, 4.898587196589412829E-16, 315.0000000000000000 ) ) ;
#97 = AXIS2_PLACEMENT_3D ( 'NONE', #221, #165, #226 ) ;
#98 = LOCAL_TIME ( 12, 48, 31.00000000000000000, #120 ) ;
#99 = EDGE_CURVE ( 'NONE', #25, #117, #152, .T. ) ;
#100 = AXIS2_PLACEMENT_3D ( 'NONE', #14, #154, #40 ) ;
#101 = DATE_TIME_ROLE ( 'classification_date' ) ;
#102 = ORIENTED_EDGE ( 'NONE', *, *, #56, .T. ) ;
#103 = DIRECTION ( 'NONE',  ( -0.000000000000000000, -0.000000000000000000, -1.000000000000000000 ) ) ;
#104 = CARTESIAN_POINT ( 'NONE',  ( 0.000000000000000000, 0.000000000000000000, 5.000000000000000000 ) ) ;
#105 = CARTESIAN_POINT ( 'NONE',  ( 0.000000000000000000, 0.000000000000000000, 5.000000000000000000 ) ) ;
#106 = DIRECTION ( 'NONE',  ( 0.000000000000000000, 0.000000000000000000, 1.000000000000000000 ) ) ;
#107 = LINE ( 'NONE', #202, #31 ) ;
#108 = DIRECTION ( 'NONE',  ( -0.000000000000000000, -0.000000000000000000, -1.000000000000000000 ) ) ;
#109 = CARTESIAN_POINT ( 'NONE',  ( 0.000000000000000000, 0.000000000000000000, 315.0000000000000000 ) ) ;
#110 = DIRECTION ( 'NONE',  ( 1.000000000000000000, 0.000000000000000000, 0.000000000000000000 ) ) ;
#111 = AXIS2_PLACEMENT_3D ( 'NONE', #26, #103, #7 ) ;
#112 = EDGE_CURVE ( 'NONE', #117, #25, #228, .T. ) ;
#113 = CARTESIAN_POINT ( 'NONE',  ( 0.000000000000000000, 0.000000000000000000, 0.000000000000000000 ) ) ;
#114 = PERSON_AND_ORGANIZATION ( #247, #196 ) ;
#115 = ORIENTED_EDGE ( 'NONE', *, *, #99, .T. ) ;
#116 = APPROVAL_STATUS ( 'not_yet_approved' ) ;
#117 = VERTEX_POINT ( 'NONE', #93 ) ;
#118 = CIRCLE ( 'NONE', #77, 7.000000000000000000 ) ;
#119 = VERTEX_POINT ( 'NONE', #9 ) ;
#120 = COORDINATED_UNIVERSAL_TIME_OFFSET ( 1, 0, .AHEAD. ) ;
#121 = ADVANCED_FACE ( 'NONE', ( #72 ), #128, .T. ) ;
#122 = ORIENTED_EDGE ( 'NONE', *, *, #52, .F. ) ;
#123 = PLANE ( 'NONE',  #57 ) ;
#124 = FACE_BOUND ( 'NONE', #142, .T. ) ;
#125 = AXIS2_PLACEMENT_3D ( 'NONE', #12, #30, #243 ) ;
#126 = CC_DESIGN_DATE_AND_TIME_ASSIGNMENT ( #60, #41, ( #216 ) ) ;
#127 = CARTESIAN_POINT ( 'NONE',  ( 7.000000000000000000, 8.572527594031473190E-16, 0.000000000000000000 ) ) ;
#128 = PLANE ( 'NONE',  #97 ) ;
#129 = CARTESIAN_POINT ( 'NONE',  ( 0.000000000000000000, 0.000000000000000000, 0.000000000000000000 ) ) ;
#130 = VECTOR ( 'NONE', #10, 1000.000000000000000 ) ;
#131 = SECURITY_CLASSIFICATION ( '', '', #2 ) ;
#132 = DIRECTION ( 'NONE',  ( -0.000000000000000000, -0.000000000000000000, -1.000000000000000000 ) ) ;
#133 =( NAMED_UNIT ( * ) SI_UNIT ( $, .STERADIAN. ) SOLID_ANGLE_UNIT ( ) );
#134 = APPLICATION_PROTOCOL_DEFINITION ( 'international standard', 'config_control_design', 1994, #254 ) ;
#135 = APPROVAL_DATE_TIME ( #157, #5 ) ;
#136 = APPROVAL_ROLE ( '' ) ;
#137 = PRODUCT_RELATED_PRODUCT_CATEGORY ( 'detail', '', ( #187 ) ) ;
#138 = EDGE_LOOP ( 'NONE', ( #122, #164, #160, #238 ) ) ;
#139 = CIRCLE ( 'NONE', #240, 4.000000000000000000 ) ;
#140 = DATE_AND_TIME ( #191, #177 ) ;
#141 = PRODUCT_DEFINITION_SHAPE ( 'NONE', 'NONE',  #216 ) ;
#142 = EDGE_LOOP ( 'NONE', ( #49, #82 ) ) ;
#143 = APPROVAL_DATE_TIME ( #81, #18 ) ;
#144 = PERSON_AND_ORGANIZATION ( #247, #196 ) ;
#145 = DIRECTION ( 'NONE',  ( -1.000000000000000000, 0.000000000000000000, 0.000000000000000000 ) ) ;
#146 = FACE_OUTER_BOUND ( 'NONE', #87, .T. ) ;
#147 = LINE ( 'NONE', #8, #130 ) ;
#148 = CC_DESIGN_APPROVAL ( #5, ( #216 ) ) ;
#149 = PLANE ( 'NONE',  #70 ) ;
#150 = DIRECTION ( 'NONE',  ( 0.000000000000000000, 0.000000000000000000, 1.000000000000000000 ) ) ;
#151 =( LENGTH_UNIT ( ) NAMED_UNIT ( * ) SI_UNIT ( .MILLI., .METRE. ) );
#152 = CIRCLE ( 'NONE', #17, 7.000000000000000000 ) ;
#153 = APPROVAL_PERSON_ORGANIZATION ( #114, #35, #136 ) ;
#154 = DIRECTION ( 'NONE',  ( 0.000000000000000000, 0.000000000000000000, 1.000000000000000000 ) ) ;
#155 = PERSON_AND_ORGANIZATION ( #247, #196 ) ;
#156 = EDGE_CURVE ( 'NONE', #63, #53, #236, .T. ) ;
#157 = DATE_AND_TIME ( #58, #225 ) ;
#158 = DATE_AND_TIME ( #175, #23 ) ;
#159 = ORIENTED_EDGE ( 'NONE', *, *, #52, .T. ) ;
#160 = ORIENTED_EDGE ( 'NONE', *, *, #83, .T. ) ;
#161 = VERTEX_POINT ( 'NONE', #51 ) ;
#162 = ORIENTED_EDGE ( 'NONE', *, *, #204, .F. ) ;
#163 = ADVANCED_FACE ( 'NONE', ( #73 ), #32, .T. ) ;
#164 = ORIENTED_EDGE ( 'NONE', *, *, #170, .T. ) ;
#165 = DIRECTION ( 'NONE',  ( 0.000000000000000000, 0.000000000000000000, 1.000000000000000000 ) ) ;
#166 = DIRECTION ( 'NONE',  ( 0.000000000000000000, 0.000000000000000000, 1.000000000000000000 ) ) ;
#167 = DIRECTION ( 'NONE',  ( 1.000000000000000000, 0.000000000000000000, 0.000000000000000000 ) ) ;
#168 = COORDINATED_UNIVERSAL_TIME_OFFSET ( 1, 0, .AHEAD. ) ;
#169 = DIRECTION ( 'NONE',  ( -1.000000000000000000, 0.000000000000000000, 0.000000000000000000 ) ) ;
#170 = EDGE_CURVE ( 'NONE', #227, #119, #89, .T. ) ;
#171 = APPROVAL_PERSON_ORGANIZATION ( #210, #5, #250 ) ;
#172 = MECHANICAL_CONTEXT ( 'NONE', #252, 'mechanical' ) ;
#173 =( NAMED_UNIT ( * ) PLANE_ANGLE_UNIT ( ) SI_UNIT ( $, .RADIAN. ) );
#174 = CIRCLE ( 'NONE', #64, 4.000000000000000000 ) ;
#175 = CALENDAR_DATE ( 2023, 12, 2 ) ;
#176 = PERSON_AND_ORGANIZATION ( #247, #196 ) ;
#177 = LOCAL_TIME ( 12, 48, 31.00000000000000000, #20 ) ;
#178 = CC_DESIGN_PERSON_AND_ORGANIZATION_ASSIGNMENT ( #190, #39, ( #216 ) ) ;
#179 = CYLINDRICAL_SURFACE ( 'NONE', #22, 7.000000000000000000 ) ;
#180 = DIRECTION ( 'NONE',  ( 1.000000000000000000, 0.000000000000000000, 0.000000000000000000 ) ) ;
#181 = DIRECTION ( 'NONE',  ( -0.000000000000000000, -0.000000000000000000, -1.000000000000000000 ) ) ;
#182 = ADVANCED_FACE ( 'NONE', ( #248 ), #34, .T. ) ;
#183 = CARTESIAN_POINT ( 'NONE',  ( 0.000000000000000000, 0.000000000000000000, 5.000000000000000000 ) ) ;
#184 = DIRECTION ( 'NONE',  ( 1.000000000000000000, 0.000000000000000000, 0.000000000000000000 ) ) ;
#185 = DIRECTION ( 'NONE',  ( 0.000000000000000000, 0.000000000000000000, 1.000000000000000000 ) ) ;
#186 = EDGE_CURVE ( 'NONE', #161, #119, #211, .T. ) ;
#187 = PRODUCT ( '5b96', '5b96', '', ( #172 ) ) ;
#188 = CARTESIAN_POINT ( 'NONE',  ( 0.000000000000000000, 0.000000000000000000, 315.0000000000000000 ) ) ;
#189 = CC_DESIGN_DATE_AND_TIME_ASSIGNMENT ( #158, #101, ( #131 ) ) ;
#190 = PERSON_AND_ORGANIZATION ( #247, #196 ) ;
#191 = CALENDAR_DATE ( 2023, 12, 2 ) ;
#192 = COORDINATED_UNIVERSAL_TIME_OFFSET ( 1, 0, .AHEAD. ) ;
#193 = ADVANCED_FACE ( 'NONE', ( #78 ), #16, .T. ) ;
#194 = SHAPE_DEFINITION_REPRESENTATION ( #141, #65 ) ;
#195 = ORIENTED_EDGE ( 'NONE', *, *, #198, .T. ) ;
#196 = ORGANIZATION ( 'NEURÈENÝ', 'NEURÈENÝ', '' ) ;
#197 = PERSON_AND_ORGANIZATION ( #247, #196 ) ;
#198 = EDGE_CURVE ( 'NONE', #63, #25, #230, .T. ) ;
#199 = ORIENTED_EDGE ( 'NONE', *, *, #46, .T. ) ;
#200 = CARTESIAN_POINT ( 'NONE',  ( 0.000000000000000000, 0.000000000000000000, 0.000000000000000000 ) ) ;
#201 = AXIS2_PLACEMENT_3D ( 'NONE', #29, #206, #90 ) ;
#202 = CARTESIAN_POINT ( 'NONE',  ( -7.000000000000000000, 0.000000000000000000, 5.000000000000000000 ) ) ;
#203 = DIRECTION ( 'NONE',  ( 1.000000000000000000, 0.000000000000000000, 0.000000000000000000 ) ) ;
#204 = EDGE_CURVE ( 'NONE', #215, #227, #19, .T. ) ;
#205 = CARTESIAN_POINT ( 'NONE',  ( 0.000000000000000000, 0.000000000000000000, 315.0000000000000000 ) ) ;
#206 = DIRECTION ( 'NONE',  ( 0.000000000000000000, 0.000000000000000000, 1.000000000000000000 ) ) ;
#207 = VECTOR ( 'NONE', #253, 1000.000000000000000 ) ;
#208 = APPROVAL_STATUS ( 'not_yet_approved' ) ;
#209 = CARTESIAN_POINT ( 'NONE',  ( 7.000000000000000000, 8.572527594031473190E-16, 5.000000000000000000 ) ) ;
#210 = PERSON_AND_ORGANIZATION ( #247, #196 ) ;
#211 = CIRCLE ( 'NONE', #100, 4.000000000000000000 ) ;
#212 = CARTESIAN_POINT ( 'NONE',  ( -4.000000000000000000, 0.000000000000000000, 315.0000000000000000 ) ) ;
#213 = APPROVAL_ROLE ( '' ) ;
#214 = APPROVAL_PERSON_ORGANIZATION ( #234, #18, #213 ) ;
#215 = VERTEX_POINT ( 'NONE', #212 ) ;
#216 = PRODUCT_DEFINITION ( 'NEZNÁMÝ', '', #79, #223 ) ;
#217 = ORIENTED_EDGE ( 'NONE', *, *, #170, .F. ) ;
#218 = ORIENTED_EDGE ( 'NONE', *, *, #204, .T. ) ;
#219 = CALENDAR_DATE ( 2023, 12, 2 ) ;
#220 = ORIENTED_EDGE ( 'NONE', *, *, #186, .T. ) ;
#221 = CARTESIAN_POINT ( 'NONE',  ( 0.000000000000000000, 0.000000000000000000, 315.0000000000000000 ) ) ;
#222 = DIRECTION ( 'NONE',  ( 0.000000000000000000, 0.000000000000000000, 1.000000000000000000 ) ) ;
#223 = DESIGN_CONTEXT ( 'detailed design', #254, 'design' ) ;
#224 = EDGE_LOOP ( 'NONE', ( #218, #159 ) ) ;
#225 = LOCAL_TIME ( 12, 48, 31.00000000000000000, #232 ) ;
#226 = DIRECTION ( 'NONE',  ( 1.000000000000000000, 0.000000000000000000, -0.000000000000000000 ) ) ;
#227 = VERTEX_POINT ( 'NONE', #33 ) ;
#228 = CIRCLE ( 'NONE', #201, 7.000000000000000000 ) ;
#229 = CC_DESIGN_SECURITY_CLASSIFICATION ( #131, ( #79 ) ) ;
#230 = LINE ( 'NONE', #209, #38 ) ;
#231 = PERSON_AND_ORGANIZATION_ROLE ( 'design_owner' ) ;
#232 = COORDINATED_UNIVERSAL_TIME_OFFSET ( 1, 0, .AHEAD. ) ;
#233 = CALENDAR_DATE ( 2023, 12, 2 ) ;
#234 = PERSON_AND_ORGANIZATION ( #247, #196 ) ;
#235 = EDGE_LOOP ( 'NONE', ( #217, #162, #45, #220 ) ) ;
#236 = CIRCLE ( 'NONE', #125, 7.000000000000000000 ) ;
#237 =( GEOMETRIC_REPRESENTATION_CONTEXT ( 3 ) GLOBAL_UNCERTAINTY_ASSIGNED_CONTEXT ( ( #13 ) ) GLOBAL_UNIT_ASSIGNED_CONTEXT ( ( #151, #173, #133 ) ) REPRESENTATION_CONTEXT ( 'NONE', 'WORKASPACE' ) );
#238 = ORIENTED_EDGE ( 'NONE', *, *, #95, .F. ) ;
#239 = ORIENTED_EDGE ( 'NONE', *, *, #156, .T. ) ;
#240 = AXIS2_PLACEMENT_3D ( 'NONE', #205, #106, #167 ) ;
#241 = DIRECTION ( 'NONE',  ( 1.000000000000000000, 0.000000000000000000, -0.000000000000000000 ) ) ;
#242 = CARTESIAN_POINT ( 'NONE',  ( 0.000000000000000000, 0.000000000000000000, 5.000000000000000000 ) ) ;
#243 = DIRECTION ( 'NONE',  ( 1.000000000000000000, 0.000000000000000000, 0.000000000000000000 ) ) ;
#244 = MANIFOLD_SOLID_BREP ( 'Pøidat vysunutím3', #54 ) ;
#245 = CARTESIAN_POINT ( 'NONE',  ( -7.000000000000000000, 0.000000000000000000, 5.000000000000000000 ) ) ;
#246 = DIRECTION ( 'NONE',  ( 0.000000000000000000, 0.000000000000000000, 1.000000000000000000 ) ) ;
#247 = PERSON ( 'NEURÈENÝ', 'NEURÈENÝ', 'NEURÈENÝ', ('NEURÈENÝ'), ('NEURÈENÝ'), ('NEURÈENÝ') ) ;
#248 = FACE_OUTER_BOUND ( 'NONE', #43, .T. ) ;
#249 = APPLICATION_PROTOCOL_DEFINITION ( 'international standard', 'config_control_design', 1994, #252 ) ;
#250 = APPROVAL_ROLE ( '' ) ;
#251 = CC_DESIGN_PERSON_AND_ORGANIZATION_ASSIGNMENT ( #197, #62, ( #79 ) ) ;
#252 = APPLICATION_CONTEXT ( 'configuration controlled 3d designs of mechanical parts and assemblies' ) ;
#253 = DIRECTION ( 'NONE',  ( -0.000000000000000000, -0.000000000000000000, -1.000000000000000000 ) ) ;
#254 = APPLICATION_CONTEXT ( 'configuration controlled 3d designs of mechanical parts and assemblies' ) ;
#255 = PERSON_AND_ORGANIZATION_ROLE ( 'classification_officer' ) ;
ENDSEC;
END-ISO-10303-21;
