ISO-10303-21;
HEADER;
FILE_DESCRIPTION (( 'STEP AP203' ),
    '1' );
FILE_NAME ('5213.STEP',
    '2023-02-12T12:28:55',
    ( '' ),
    ( '' ),
    'SwSTEP 2.0',
    'SolidWorks 2019',
    '' );
FILE_SCHEMA (( 'CONFIG_CONTROL_DESIGN' ));
ENDSEC;

DATA;
#1 = CC_DESIGN_PERSON_AND_ORGANIZATION_ASSIGNMENT ( #159, #177, ( #220 ) ) ;
#2 = PLANE ( 'NONE',  #134 ) ;
#3 = CYLINDRICAL_SURFACE ( 'NONE', #25, 2.500000000000000000 ) ;
#4 = ORIENTED_EDGE ( 'NONE', *, *, #6, .F. ) ;
#5 = EDGE_CURVE ( 'NONE', #169, #81, #246, .T. ) ;
#6 = EDGE_CURVE ( 'NONE', #169, #116, #204, .T. ) ;
#7 = DESIGN_CONTEXT ( 'detailed design', #136, 'design' ) ;
#8 = CIRCLE ( 'NONE', #113, 2.500000000000000000 ) ;
#9 = ORIENTED_EDGE ( 'NONE', *, *, #23, .F. ) ;
#10 = VECTOR ( 'NONE', #80, 1000.000000000000000 ) ;
#11 = APPROVAL ( #186, 'NEURÈENÝ' ) ;
#12 = CARTESIAN_POINT ( 'NONE',  ( -2.500000000000000000, 0.000000000000000000, 800.0000000000000000 ) ) ;
#13 = CARTESIAN_POINT ( 'NONE',  ( 0.000000000000000000, 0.000000000000000000, 3.000000000000000000 ) ) ;
#14 = EDGE_LOOP ( 'NONE', ( #37, #64, #122, #141 ) ) ;
#15 = CARTESIAN_POINT ( 'NONE',  ( -2.500000000000000000, 0.000000000000000000, 3.000000000000000000 ) ) ;
#16 = ORIENTED_EDGE ( 'NONE', *, *, #247, .F. ) ;
#17 = AXIS2_PLACEMENT_3D ( 'NONE', #88, #66, #102 ) ;
#18 = DATE_TIME_ROLE ( 'creation_date' ) ;
#19 = ORIENTED_EDGE ( 'NONE', *, *, #5, .T. ) ;
#20 = CC_DESIGN_PERSON_AND_ORGANIZATION_ASSIGNMENT ( #151, #224, ( #238 ) ) ;
#21 = DIRECTION ( 'NONE',  ( 1.000000000000000000, 0.000000000000000000, 0.000000000000000000 ) ) ;
#22 = ORIENTED_EDGE ( 'NONE', *, *, #90, .F. ) ;
#23 = EDGE_CURVE ( 'NONE', #228, #116, #225, .T. ) ;
#24 = CYLINDRICAL_SURFACE ( 'NONE', #106, 5.000000000000000000 ) ;
#25 = AXIS2_PLACEMENT_3D ( 'NONE', #173, #155, #60 ) ;
#26 = EDGE_LOOP ( 'NONE', ( #9, #61 ) ) ;
#27 = CALENDAR_DATE ( 2023, 12, 2 ) ;
#28 = CALENDAR_DATE ( 2023, 12, 2 ) ;
#29 = APPROVAL_DATE_TIME ( #49, #11 ) ;
#30 = EDGE_LOOP ( 'NONE', ( #105, #19 ) ) ;
#31 = EDGE_CURVE ( 'NONE', #55, #201, #189, .T. ) ;
#32 =( GEOMETRIC_REPRESENTATION_CONTEXT ( 3 ) GLOBAL_UNCERTAINTY_ASSIGNED_CONTEXT ( ( #110 ) ) GLOBAL_UNIT_ASSIGNED_CONTEXT ( ( #253, #127, #158 ) ) REPRESENTATION_CONTEXT ( 'NONE', 'WORKASPACE' ) );
#33 = ORGANIZATION ( 'NEURÈENÝ', 'NEURÈENÝ', '' ) ;
#34 = VECTOR ( 'NONE', #139, 1000.000000000000000 ) ;
#35 = CARTESIAN_POINT ( 'NONE',  ( 0.000000000000000000, 0.000000000000000000, 800.0000000000000000 ) ) ;
#36 = PERSON_AND_ORGANIZATION ( #181, #33 ) ;
#37 = ORIENTED_EDGE ( 'NONE', *, *, #109, .F. ) ;
#38 = DIRECTION ( 'NONE',  ( -0.000000000000000000, -0.000000000000000000, -1.000000000000000000 ) ) ;
#39 = CIRCLE ( 'NONE', #185, 2.500000000000000000 ) ;
#40 = DIRECTION ( 'NONE',  ( -0.000000000000000000, -0.000000000000000000, -1.000000000000000000 ) ) ;
#41 = VECTOR ( 'NONE', #196, 1000.000000000000000 ) ;
#42 = CARTESIAN_POINT ( 'NONE',  ( 2.500000000000000000, 3.061616997868383141E-16, 800.0000000000000000 ) ) ;
#43 = PRODUCT_RELATED_PRODUCT_CATEGORY ( 'detail', '', ( #157 ) ) ;
#44 = FACE_OUTER_BOUND ( 'NONE', #75, .T. ) ;
#45 = DIRECTION ( 'NONE',  ( 0.000000000000000000, 0.000000000000000000, 1.000000000000000000 ) ) ;
#46 = PERSON_AND_ORGANIZATION ( #181, #33 ) ;
#47 = COORDINATED_UNIVERSAL_TIME_OFFSET ( 1, 0, .AHEAD. ) ;
#48 = APPROVAL ( #77, 'NEURÈENÝ' ) ;
#49 = DATE_AND_TIME ( #218, #245 ) ;
#50 = DATE_TIME_ROLE ( 'classification_date' ) ;
#51 = PRODUCT_DEFINITION_SHAPE ( 'NONE', 'NONE',  #238 ) ;
#52 = ADVANCED_FACE ( 'NONE', ( #86, #118 ), #2, .T. ) ;
#53 = AXIS2_PLACEMENT_3D ( 'NONE', #54, #188, #97 ) ;
#54 = CARTESIAN_POINT ( 'NONE',  ( 0.000000000000000000, 0.000000000000000000, 3.000000000000000000 ) ) ;
#55 = VERTEX_POINT ( 'NONE', #68 ) ;
#56 = PLANE ( 'NONE',  #162 ) ;
#57 = DATE_AND_TIME ( #192, #78 ) ;
#58 = ORIENTED_EDGE ( 'NONE', *, *, #212, .F. ) ;
#59 = AXIS2_PLACEMENT_3D ( 'NONE', #142, #45, #165 ) ;
#60 = DIRECTION ( 'NONE',  ( -1.000000000000000000, 0.000000000000000000, 0.000000000000000000 ) ) ;
#61 = ORIENTED_EDGE ( 'NONE', *, *, #129, .F. ) ;
#62 = DIRECTION ( 'NONE',  ( 0.000000000000000000, 0.000000000000000000, 1.000000000000000000 ) ) ;
#63 = ADVANCED_FACE ( 'NONE', ( #163 ), #3, .T. ) ;
#64 = ORIENTED_EDGE ( 'NONE', *, *, #241, .F. ) ;
#65 = AXIS2_PLACEMENT_3D ( 'NONE', #183, #74, #115 ) ;
#66 = DIRECTION ( 'NONE',  ( 0.000000000000000000, 0.000000000000000000, 1.000000000000000000 ) ) ;
#67 = CC_DESIGN_DATE_AND_TIME_ASSIGNMENT ( #72, #50, ( #213 ) ) ;
#68 = CARTESIAN_POINT ( 'NONE',  ( -2.500000000000000000, 0.000000000000000000, 800.0000000000000000 ) ) ;
#69 = LOCAL_TIME ( 13, 28, 55.00000000000000000, #239 ) ;
#70 = CIRCLE ( 'NONE', #154, 5.000000000000000000 ) ;
#71 = AXIS2_PLACEMENT_3D ( 'NONE', #100, #174, #140 ) ;
#72 = DATE_AND_TIME ( #27, #69 ) ;
#73 = PERSON_AND_ORGANIZATION ( #181, #33 ) ;
#74 = DIRECTION ( 'NONE',  ( 0.000000000000000000, 0.000000000000000000, 1.000000000000000000 ) ) ;
#75 = EDGE_LOOP ( 'NONE', ( #4, #58, #184, #210 ) ) ;
#76 = CYLINDRICAL_SURFACE ( 'NONE', #96, 5.000000000000000000 ) ;
#77 = APPROVAL_STATUS ( 'not_yet_approved' ) ;
#78 = LOCAL_TIME ( 13, 28, 55.00000000000000000, #101 ) ;
#79 = FACE_OUTER_BOUND ( 'NONE', #114, .T. ) ;
#80 = DIRECTION ( 'NONE',  ( -0.000000000000000000, -0.000000000000000000, -1.000000000000000000 ) ) ;
#81 = VERTEX_POINT ( 'NONE', #160 ) ;
#82 = FACE_OUTER_BOUND ( 'NONE', #138, .T. ) ;
#83 = DIRECTION ( 'NONE',  ( 0.000000000000000000, 0.000000000000000000, 1.000000000000000000 ) ) ;
#84 = DIRECTION ( 'NONE',  ( -0.000000000000000000, -0.000000000000000000, -1.000000000000000000 ) ) ;
#85 = ORIENTED_EDGE ( 'NONE', *, *, #129, .T. ) ;
#86 = FACE_BOUND ( 'NONE', #208, .T. ) ;
#87 = EDGE_LOOP ( 'NONE', ( #22, #255, #93, #237 ) ) ;
#88 = CARTESIAN_POINT ( 'NONE',  ( 0.000000000000000000, 0.000000000000000000, 0.000000000000000000 ) ) ;
#89 = CARTESIAN_POINT ( 'NONE',  ( 0.000000000000000000, 0.000000000000000000, 0.000000000000000000 ) ) ;
#90 = EDGE_CURVE ( 'NONE', #222, #55, #8, .T. ) ;
#91 = APPROVAL_ROLE ( '' ) ;
#92 = PERSON_AND_ORGANIZATION_ROLE ( 'classification_officer' ) ;
#93 = ORIENTED_EDGE ( 'NONE', *, *, #152, .T. ) ;
#94 = CC_DESIGN_DATE_AND_TIME_ASSIGNMENT ( #57, #18, ( #238 ) ) ;
#95 = DIRECTION ( 'NONE',  ( -1.000000000000000000, 0.000000000000000000, 0.000000000000000000 ) ) ;
#96 = AXIS2_PLACEMENT_3D ( 'NONE', #221, #131, #95 ) ;
#97 = DIRECTION ( 'NONE',  ( 1.000000000000000000, 0.000000000000000000, 0.000000000000000000 ) ) ;
#98 = DIRECTION ( 'NONE',  ( 0.000000000000000000, 0.000000000000000000, 1.000000000000000000 ) ) ;
#99 = ADVANCED_FACE ( 'NONE', ( #137 ), #230, .F. ) ;
#100 = CARTESIAN_POINT ( 'NONE',  ( 0.000000000000000000, 0.000000000000000000, 3.000000000000000000 ) ) ;
#101 = COORDINATED_UNIVERSAL_TIME_OFFSET ( 1, 0, .AHEAD. ) ;
#102 = DIRECTION ( 'NONE',  ( 1.000000000000000000, 0.000000000000000000, -0.000000000000000000 ) ) ;
#103 = CARTESIAN_POINT ( 'NONE',  ( 2.500000000000000000, 3.061616997868383141E-16, 800.0000000000000000 ) ) ;
#104 = DIRECTION ( 'NONE',  ( -1.000000000000000000, 0.000000000000000000, 0.000000000000000000 ) ) ;
#105 = ORIENTED_EDGE ( 'NONE', *, *, #212, .T. ) ;
#106 = AXIS2_PLACEMENT_3D ( 'NONE', #156, #40, #104 ) ;
#107 = ORIENTED_EDGE ( 'NONE', *, *, #6, .T. ) ;
#108 = AXIS2_PLACEMENT_3D ( 'NONE', #13, #206, #132 ) ;
#109 = EDGE_CURVE ( 'NONE', #222, #153, #211, .T. ) ;
#110 = UNCERTAINTY_MEASURE_WITH_UNIT (LENGTH_MEASURE( 1.000000000000000082E-05 ), #253, 'distance_accuracy_value', 'NONE');
#111 = APPLICATION_PROTOCOL_DEFINITION ( 'international standard', 'config_control_design', 1994, #136 ) ;
#112 = CC_DESIGN_PERSON_AND_ORGANIZATION_ASSIGNMENT ( #46, #92, ( #213 ) ) ;
#113 = AXIS2_PLACEMENT_3D ( 'NONE', #227, #62, #21 ) ;
#114 = EDGE_LOOP ( 'NONE', ( #243, #117 ) ) ;
#115 = DIRECTION ( 'NONE',  ( 1.000000000000000000, 0.000000000000000000, 0.000000000000000000 ) ) ;
#116 = VERTEX_POINT ( 'NONE', #176 ) ;
#117 = ORIENTED_EDGE ( 'NONE', *, *, #90, .T. ) ;
#118 = FACE_OUTER_BOUND ( 'NONE', #30, .T. ) ;
#119 = CC_DESIGN_APPROVAL ( #48, ( #220 ) ) ;
#120 = CC_DESIGN_APPROVAL ( #187, ( #213 ) ) ;
#121 = CARTESIAN_POINT ( 'NONE',  ( 0.000000000000000000, 0.000000000000000000, 3.000000000000000000 ) ) ;
#122 = ORIENTED_EDGE ( 'NONE', *, *, #31, .T. ) ;
#123 = DIRECTION ( 'NONE',  ( 0.000000000000000000, 0.000000000000000000, 1.000000000000000000 ) ) ;
#124 = APPLICATION_PROTOCOL_DEFINITION ( 'international standard', 'config_control_design', 1994, #235 ) ;
#125 = PERSON_AND_ORGANIZATION_ROLE ( 'design_owner' ) ;
#126 = VECTOR ( 'NONE', #38, 1000.000000000000000 ) ;
#127 =( NAMED_UNIT ( * ) PLANE_ANGLE_UNIT ( ) SI_UNIT ( $, .RADIAN. ) );
#128 = DATE_AND_TIME ( #28, #251 ) ;
#129 = EDGE_CURVE ( 'NONE', #116, #228, #70, .T. ) ;
#130 = CIRCLE ( 'NONE', #53, 2.500000000000000000 ) ;
#131 = DIRECTION ( 'NONE',  ( -0.000000000000000000, -0.000000000000000000, -1.000000000000000000 ) ) ;
#132 = DIRECTION ( 'NONE',  ( 1.000000000000000000, 0.000000000000000000, 0.000000000000000000 ) ) ;
#133 = APPROVAL_PERSON_ORGANIZATION ( #219, #187, #91 ) ;
#134 = AXIS2_PLACEMENT_3D ( 'NONE', #226, #83, #190 ) ;
#135 = DIRECTION ( 'NONE',  ( 1.000000000000000000, 0.000000000000000000, 0.000000000000000000 ) ) ;
#136 = APPLICATION_CONTEXT ( 'configuration controlled 3d designs of mechanical parts and assemblies' ) ;
#137 = FACE_OUTER_BOUND ( 'NONE', #26, .T. ) ;
#138 = EDGE_LOOP ( 'NONE', ( #229, #107, #85, #16 ) ) ;
#139 = DIRECTION ( 'NONE',  ( -0.000000000000000000, -0.000000000000000000, -1.000000000000000000 ) ) ;
#140 = DIRECTION ( 'NONE',  ( 1.000000000000000000, 0.000000000000000000, 0.000000000000000000 ) ) ;
#141 = ORIENTED_EDGE ( 'NONE', *, *, #170, .T. ) ;
#142 = CARTESIAN_POINT ( 'NONE',  ( 0.000000000000000000, 0.000000000000000000, 800.0000000000000000 ) ) ;
#143 = ADVANCED_FACE ( 'NONE', ( #248 ), #209, .T. ) ;
#144 = APPROVAL_STATUS ( 'not_yet_approved' ) ;
#145 = SHAPE_DEFINITION_REPRESENTATION ( #51, #148 ) ;
#146 = COORDINATED_UNIVERSAL_TIME_OFFSET ( 1, 0, .AHEAD. ) ;
#147 = ADVANCED_FACE ( 'NONE', ( #82 ), #24, .T. ) ;
#148 = ADVANCED_BREP_SHAPE_REPRESENTATION ( '5213', ( #178, #202 ), #32 ) ;
#149 = APPROVAL_PERSON_ORGANIZATION ( #168, #11, #242 ) ;
#150 = APPROVAL_ROLE ( '' ) ;
#151 = PERSON_AND_ORGANIZATION ( #181, #33 ) ;
#152 = EDGE_CURVE ( 'NONE', #153, #201, #39, .T. ) ;
#153 = VERTEX_POINT ( 'NONE', #164 ) ;
#154 = AXIS2_PLACEMENT_3D ( 'NONE', #214, #123, #135 ) ;
#155 = DIRECTION ( 'NONE',  ( -0.000000000000000000, -0.000000000000000000, -1.000000000000000000 ) ) ;
#156 = CARTESIAN_POINT ( 'NONE',  ( 0.000000000000000000, 0.000000000000000000, 3.000000000000000000 ) ) ;
#157 = PRODUCT ( '5213', '5213', '', ( #236 ) ) ;
#158 =( NAMED_UNIT ( * ) SI_UNIT ( $, .STERADIAN. ) SOLID_ANGLE_UNIT ( ) );
#159 = PERSON_AND_ORGANIZATION ( #181, #33 ) ;
#160 = CARTESIAN_POINT ( 'NONE',  ( -5.000000000000000000, 0.000000000000000000, 3.000000000000000000 ) ) ;
#161 = DIRECTION ( 'NONE',  ( 1.000000000000000000, 0.000000000000000000, 0.000000000000000000 ) ) ;
#162 = AXIS2_PLACEMENT_3D ( 'NONE', #35, #98, #249 ) ;
#163 = FACE_OUTER_BOUND ( 'NONE', #14, .T. ) ;
#164 = CARTESIAN_POINT ( 'NONE',  ( 2.500000000000000000, 3.061616997868383141E-16, 3.000000000000000000 ) ) ;
#165 = DIRECTION ( 'NONE',  ( 1.000000000000000000, 0.000000000000000000, 0.000000000000000000 ) ) ;
#166 = APPROVAL_DATE_TIME ( #128, #187 ) ;
#167 = ADVANCED_FACE ( 'NONE', ( #44 ), #76, .T. ) ;
#168 = PERSON_AND_ORGANIZATION ( #181, #33 ) ;
#169 = VERTEX_POINT ( 'NONE', #223 ) ;
#170 = EDGE_CURVE ( 'NONE', #201, #153, #130, .T. ) ;
#171 = CLOSED_SHELL ( 'NONE', ( #143, #147, #167, #52, #99, #63, #193 ) ) ;
#172 = ORIENTED_EDGE ( 'NONE', *, *, #170, .F. ) ;
#173 = CARTESIAN_POINT ( 'NONE',  ( 0.000000000000000000, 0.000000000000000000, 800.0000000000000000 ) ) ;
#174 = DIRECTION ( 'NONE',  ( 0.000000000000000000, 0.000000000000000000, 1.000000000000000000 ) ) ;
#175 = LOCAL_TIME ( 13, 28, 55.00000000000000000, #250 ) ;
#176 = CARTESIAN_POINT ( 'NONE',  ( 5.000000000000000000, 6.123233995736766282E-16, 0.000000000000000000 ) ) ;
#177 = PERSON_AND_ORGANIZATION_ROLE ( 'creator' ) ;
#178 = MANIFOLD_SOLID_BREP ( 'Pøidat vysunutím3', #171 ) ;
#179 = AXIS2_PLACEMENT_3D ( 'NONE', #252, #84, #194 ) ;
#180 = LINE ( 'NONE', #215, #41 ) ;
#181 = PERSON ( 'NEURÈENÝ', 'NEURÈENÝ', 'NEURÈENÝ', ('NEURÈENÝ'), ('NEURÈENÝ'), ('NEURÈENÝ') ) ;
#182 = CIRCLE ( 'NONE', #59, 2.500000000000000000 ) ;
#183 = CARTESIAN_POINT ( 'NONE',  ( 0.000000000000000000, 0.000000000000000000, 0.000000000000000000 ) ) ;
#184 = ORIENTED_EDGE ( 'NONE', *, *, #247, .T. ) ;
#185 = AXIS2_PLACEMENT_3D ( 'NONE', #121, #233, #161 ) ;
#186 = APPROVAL_STATUS ( 'not_yet_approved' ) ;
#187 = APPROVAL ( #144, 'NEURÈENÝ' ) ;
#188 = DIRECTION ( 'NONE',  ( 0.000000000000000000, 0.000000000000000000, 1.000000000000000000 ) ) ;
#189 = LINE ( 'NONE', #12, #126 ) ;
#190 = DIRECTION ( 'NONE',  ( 1.000000000000000000, 0.000000000000000000, -0.000000000000000000 ) ) ;
#191 = CC_DESIGN_APPROVAL ( #11, ( #238 ) ) ;
#192 = CALENDAR_DATE ( 2023, 12, 2 ) ;
#193 = ADVANCED_FACE ( 'NONE', ( #79 ), #56, .T. ) ;
#194 = DIRECTION ( 'NONE',  ( -1.000000000000000000, 0.000000000000000000, 0.000000000000000000 ) ) ;
#195 = CARTESIAN_POINT ( 'NONE',  ( -5.000000000000000000, 0.000000000000000000, 0.000000000000000000 ) ) ;
#196 = DIRECTION ( 'NONE',  ( -0.000000000000000000, -0.000000000000000000, -1.000000000000000000 ) ) ;
#197 = APPROVAL_PERSON_ORGANIZATION ( #36, #48, #150 ) ;
#198 = SECURITY_CLASSIFICATION_LEVEL ( 'unclassified' ) ;
#199 = PERSON_AND_ORGANIZATION_ROLE ( 'design_supplier' ) ;
#200 = CARTESIAN_POINT ( 'NONE',  ( 5.000000000000000000, 6.123233995736766282E-16, 3.000000000000000000 ) ) ;
#201 = VERTEX_POINT ( 'NONE', #15 ) ;
#202 = AXIS2_PLACEMENT_3D ( 'NONE', #89, #234, #216 ) ;
#203 = CC_DESIGN_PERSON_AND_ORGANIZATION_ASSIGNMENT ( #73, #199, ( #220 ) ) ;
#204 = LINE ( 'NONE', #200, #10 ) ;
#205 = CC_DESIGN_SECURITY_CLASSIFICATION ( #213, ( #220 ) ) ;
#206 = DIRECTION ( 'NONE',  ( 0.000000000000000000, 0.000000000000000000, 1.000000000000000000 ) ) ;
#207 = CC_DESIGN_PERSON_AND_ORGANIZATION_ASSIGNMENT ( #240, #125, ( #157 ) ) ;
#208 = EDGE_LOOP ( 'NONE', ( #172, #232 ) ) ;
#209 = CYLINDRICAL_SURFACE ( 'NONE', #179, 2.500000000000000000 ) ;
#210 = ORIENTED_EDGE ( 'NONE', *, *, #23, .T. ) ;
#211 = LINE ( 'NONE', #103, #34 ) ;
#212 = EDGE_CURVE ( 'NONE', #81, #169, #244, .T. ) ;
#213 = SECURITY_CLASSIFICATION ( '', '', #198 ) ;
#214 = CARTESIAN_POINT ( 'NONE',  ( 0.000000000000000000, 0.000000000000000000, 0.000000000000000000 ) ) ;
#215 = CARTESIAN_POINT ( 'NONE',  ( -5.000000000000000000, 0.000000000000000000, 3.000000000000000000 ) ) ;
#216 = DIRECTION ( 'NONE',  ( 1.000000000000000000, 0.000000000000000000, 0.000000000000000000 ) ) ;
#217 = CALENDAR_DATE ( 2023, 12, 2 ) ;
#218 = CALENDAR_DATE ( 2023, 12, 2 ) ;
#219 = PERSON_AND_ORGANIZATION ( #181, #33 ) ;
#220 = PRODUCT_DEFINITION_FORMATION_WITH_SPECIFIED_SOURCE ( 'LIBOVOLNÝ', '', #157, .NOT_KNOWN. ) ;
#221 = CARTESIAN_POINT ( 'NONE',  ( 0.000000000000000000, 0.000000000000000000, 3.000000000000000000 ) ) ;
#222 = VERTEX_POINT ( 'NONE', #42 ) ;
#223 = CARTESIAN_POINT ( 'NONE',  ( 5.000000000000000000, 6.123233995736766282E-16, 3.000000000000000000 ) ) ;
#224 = PERSON_AND_ORGANIZATION_ROLE ( 'creator' ) ;
#225 = CIRCLE ( 'NONE', #65, 5.000000000000000000 ) ;
#226 = CARTESIAN_POINT ( 'NONE',  ( 0.000000000000000000, 0.000000000000000000, 3.000000000000000000 ) ) ;
#227 = CARTESIAN_POINT ( 'NONE',  ( 0.000000000000000000, 0.000000000000000000, 800.0000000000000000 ) ) ;
#228 = VERTEX_POINT ( 'NONE', #195 ) ;
#229 = ORIENTED_EDGE ( 'NONE', *, *, #5, .F. ) ;
#230 = PLANE ( 'NONE',  #17 ) ;
#231 = APPROVAL_DATE_TIME ( #254, #48 ) ;
#232 = ORIENTED_EDGE ( 'NONE', *, *, #152, .F. ) ;
#233 = DIRECTION ( 'NONE',  ( 0.000000000000000000, 0.000000000000000000, 1.000000000000000000 ) ) ;
#234 = DIRECTION ( 'NONE',  ( 0.000000000000000000, 0.000000000000000000, 1.000000000000000000 ) ) ;
#235 = APPLICATION_CONTEXT ( 'configuration controlled 3d designs of mechanical parts and assemblies' ) ;
#236 = MECHANICAL_CONTEXT ( 'NONE', #235, 'mechanical' ) ;
#237 = ORIENTED_EDGE ( 'NONE', *, *, #31, .F. ) ;
#238 = PRODUCT_DEFINITION ( 'NEZNÁMÝ', '', #220, #7 ) ;
#239 = COORDINATED_UNIVERSAL_TIME_OFFSET ( 1, 0, .AHEAD. ) ;
#240 = PERSON_AND_ORGANIZATION ( #181, #33 ) ;
#241 = EDGE_CURVE ( 'NONE', #55, #222, #182, .T. ) ;
#242 = APPROVAL_ROLE ( '' ) ;
#243 = ORIENTED_EDGE ( 'NONE', *, *, #241, .T. ) ;
#244 = CIRCLE ( 'NONE', #71, 5.000000000000000000 ) ;
#245 = LOCAL_TIME ( 13, 28, 55.00000000000000000, #146 ) ;
#246 = CIRCLE ( 'NONE', #108, 5.000000000000000000 ) ;
#247 = EDGE_CURVE ( 'NONE', #81, #228, #180, .T. ) ;
#248 = FACE_OUTER_BOUND ( 'NONE', #87, .T. ) ;
#249 = DIRECTION ( 'NONE',  ( 1.000000000000000000, 0.000000000000000000, -0.000000000000000000 ) ) ;
#250 = COORDINATED_UNIVERSAL_TIME_OFFSET ( 1, 0, .AHEAD. ) ;
#251 = LOCAL_TIME ( 13, 28, 55.00000000000000000, #47 ) ;
#252 = CARTESIAN_POINT ( 'NONE',  ( 0.000000000000000000, 0.000000000000000000, 800.0000000000000000 ) ) ;
#253 =( LENGTH_UNIT ( ) NAMED_UNIT ( * ) SI_UNIT ( .MILLI., .METRE. ) );
#254 = DATE_AND_TIME ( #217, #175 ) ;
#255 = ORIENTED_EDGE ( 'NONE', *, *, #109, .T. ) ;
ENDSEC;
END-ISO-10303-21;
