ISO-10303-21;
HEADER;
FILE_DESCRIPTION (( 'STEP AP203' ),
    '1' );
FILE_NAME ('8579.STEP',
    '2023-02-12T12:51:33',
    ( '' ),
    ( '' ),
    'SwSTEP 2.0',
    'SolidWorks 2019',
    '' );
FILE_SCHEMA (( 'CONFIG_CONTROL_DESIGN' ));
ENDSEC;

DATA;
#1 = CARTESIAN_POINT ( 'NONE',  ( 1.000000000000000000, 1.224646799147353207E-16, 400.0000000000000000 ) ) ;
#2 = DIRECTION ( 'NONE',  ( 0.000000000000000000, 0.000000000000000000, 1.000000000000000000 ) ) ;
#3 = CC_DESIGN_PERSON_AND_ORGANIZATION_ASSIGNMENT ( #112, #50, ( #9 ) ) ;
#4 = VERTEX_POINT ( 'NONE', #122 ) ;
#5 = ORIENTED_EDGE ( 'NONE', *, *, #139, .F. ) ;
#6 = COORDINATED_UNIVERSAL_TIME_OFFSET ( 1, 0, .AHEAD. ) ;
#7 = EDGE_CURVE ( 'NONE', #234, #82, #244, .T. ) ;
#8 = CIRCLE ( 'NONE', #41, 1.000000000000000000 ) ;
#9 = SECURITY_CLASSIFICATION ( '', '', #252 ) ;
#10 = AXIS2_PLACEMENT_3D ( 'NONE', #86, #109, #67 ) ;
#11 = LINE ( 'NONE', #179, #223 ) ;
#12 = CARTESIAN_POINT ( 'NONE',  ( 0.000000000000000000, 0.000000000000000000, 0.000000000000000000 ) ) ;
#13 = DIRECTION ( 'NONE',  ( 1.000000000000000000, 0.000000000000000000, 0.000000000000000000 ) ) ;
#14 = CARTESIAN_POINT ( 'NONE',  ( -1.000000000000000000, 0.000000000000000000, 2.000000000000000000 ) ) ;
#15 = LOCAL_TIME ( 13, 51, 33.00000000000000000, #34 ) ;
#16 = CARTESIAN_POINT ( 'NONE',  ( -2.000000000000000000, 0.000000000000000000, 2.000000000000000000 ) ) ;
#17 = EDGE_CURVE ( 'NONE', #145, #82, #90, .T. ) ;
#18 = EDGE_LOOP ( 'NONE', ( #43, #107 ) ) ;
#19 = CC_DESIGN_APPROVAL ( #102, ( #197 ) ) ;
#20 = ORIENTED_EDGE ( 'NONE', *, *, #166, .T. ) ;
#21 = VECTOR ( 'NONE', #98, 1000.000000000000000 ) ;
#22 = EDGE_LOOP ( 'NONE', ( #235, #62 ) ) ;
#23 = PERSON_AND_ORGANIZATION_ROLE ( 'design_owner' ) ;
#24 = ORIENTED_EDGE ( 'NONE', *, *, #17, .F. ) ;
#25 = CC_DESIGN_PERSON_AND_ORGANIZATION_ASSIGNMENT ( #155, #229, ( #185 ) ) ;
#26 = MANIFOLD_SOLID_BREP ( 'Pøidat vysunutím3', #201 ) ;
#27 = CIRCLE ( 'NONE', #178, 2.000000000000000000 ) ;
#28 = CIRCLE ( 'NONE', #193, 2.000000000000000000 ) ;
#29 = FACE_OUTER_BOUND ( 'NONE', #40, .T. ) ;
#30 = DIRECTION ( 'NONE',  ( -0.000000000000000000, -0.000000000000000000, -1.000000000000000000 ) ) ;
#31 = DIRECTION ( 'NONE',  ( 0.000000000000000000, 0.000000000000000000, 1.000000000000000000 ) ) ;
#32 = AXIS2_PLACEMENT_3D ( 'NONE', #12, #207, #242 ) ;
#33 = AXIS2_PLACEMENT_3D ( 'NONE', #217, #247, #151 ) ;
#34 = COORDINATED_UNIVERSAL_TIME_OFFSET ( 1, 0, .AHEAD. ) ;
#35 = DIRECTION ( 'NONE',  ( 1.000000000000000000, 0.000000000000000000, 0.000000000000000000 ) ) ;
#36 = DESIGN_CONTEXT ( 'detailed design', #240, 'design' ) ;
#37 = CC_DESIGN_SECURITY_CLASSIFICATION ( #9, ( #185 ) ) ;
#38 = CARTESIAN_POINT ( 'NONE',  ( 2.000000000000000000, 2.449293598294706414E-16, 2.000000000000000000 ) ) ;
#39 = EDGE_LOOP ( 'NONE', ( #20, #181 ) ) ;
#40 = EDGE_LOOP ( 'NONE', ( #241, #103, #164, #215 ) ) ;
#41 = AXIS2_PLACEMENT_3D ( 'NONE', #88, #31, #13 ) ;
#42 = ADVANCED_FACE ( 'NONE', ( #172 ), #149, .T. ) ;
#43 = ORIENTED_EDGE ( 'NONE', *, *, #180, .T. ) ;
#44 = ORIENTED_EDGE ( 'NONE', *, *, #221, .T. ) ;
#45 = APPROVAL ( #182, 'NEURÈENÝ' ) ;
#46 = PERSON_AND_ORGANIZATION ( #212, #96 ) ;
#47 = PERSON_AND_ORGANIZATION ( #212, #96 ) ;
#48 = APPLICATION_PROTOCOL_DEFINITION ( 'international standard', 'config_control_design', 1994, #72 ) ;
#49 = CARTESIAN_POINT ( 'NONE',  ( 0.000000000000000000, 0.000000000000000000, 2.000000000000000000 ) ) ;
#50 = PERSON_AND_ORGANIZATION_ROLE ( 'classification_officer' ) ;
#51 = PLANE ( 'NONE',  #231 ) ;
#52 = FACE_OUTER_BOUND ( 'NONE', #39, .T. ) ;
#53 = DIRECTION ( 'NONE',  ( 1.000000000000000000, 0.000000000000000000, 0.000000000000000000 ) ) ;
#54 = CC_DESIGN_DATE_AND_TIME_ASSIGNMENT ( #75, #132, ( #9 ) ) ;
#55 = DIRECTION ( 'NONE',  ( 0.000000000000000000, 0.000000000000000000, 1.000000000000000000 ) ) ;
#56 = CARTESIAN_POINT ( 'NONE',  ( 0.000000000000000000, 0.000000000000000000, 400.0000000000000000 ) ) ;
#57 = AXIS2_PLACEMENT_3D ( 'NONE', #89, #203, #53 ) ;
#58 = CC_DESIGN_APPROVAL ( #208, ( #9 ) ) ;
#59 = DIRECTION ( 'NONE',  ( 1.000000000000000000, 0.000000000000000000, -0.000000000000000000 ) ) ;
#60 = ORIENTED_EDGE ( 'NONE', *, *, #255, .F. ) ;
#61 =( GEOMETRIC_REPRESENTATION_CONTEXT ( 3 ) GLOBAL_UNCERTAINTY_ASSIGNED_CONTEXT ( ( #233 ) ) GLOBAL_UNIT_ASSIGNED_CONTEXT ( ( #156, #154, #126 ) ) REPRESENTATION_CONTEXT ( 'NONE', 'WORKASPACE' ) );
#62 = ORIENTED_EDGE ( 'NONE', *, *, #236, .F. ) ;
#63 = ORIENTED_EDGE ( 'NONE', *, *, #180, .F. ) ;
#64 = DIRECTION ( 'NONE',  ( -1.000000000000000000, 0.000000000000000000, 0.000000000000000000 ) ) ;
#65 = CYLINDRICAL_SURFACE ( 'NONE', #148, 1.000000000000000000 ) ;
#66 = FACE_BOUND ( 'NONE', #163, .T. ) ;
#67 = DIRECTION ( 'NONE',  ( 1.000000000000000000, 0.000000000000000000, 0.000000000000000000 ) ) ;
#68 = CIRCLE ( 'NONE', #147, 1.000000000000000000 ) ;
#69 = LOCAL_TIME ( 13, 51, 33.00000000000000000, #6 ) ;
#70 = AXIS2_PLACEMENT_3D ( 'NONE', #49, #175, #127 ) ;
#71 = DIRECTION ( 'NONE',  ( 0.000000000000000000, 0.000000000000000000, 1.000000000000000000 ) ) ;
#72 = APPLICATION_CONTEXT ( 'configuration controlled 3d designs of mechanical parts and assemblies' ) ;
#73 = CC_DESIGN_PERSON_AND_ORGANIZATION_ASSIGNMENT ( #225, #137, ( #185 ) ) ;
#74 = DIRECTION ( 'NONE',  ( 1.000000000000000000, 0.000000000000000000, 0.000000000000000000 ) ) ;
#75 = DATE_AND_TIME ( #209, #15 ) ;
#76 = ADVANCED_FACE ( 'NONE', ( #218 ), #65, .T. ) ;
#77 = DIRECTION ( 'NONE',  ( 1.000000000000000000, 0.000000000000000000, 0.000000000000000000 ) ) ;
#78 = DATE_AND_TIME ( #134, #81 ) ;
#79 = ORIENTED_EDGE ( 'NONE', *, *, #120, .T. ) ;
#80 = ADVANCED_FACE ( 'NONE', ( #66, #52 ), #51, .T. ) ;
#81 = LOCAL_TIME ( 13, 51, 33.00000000000000000, #190 ) ;
#82 = VERTEX_POINT ( 'NONE', #14 ) ;
#83 = CIRCLE ( 'NONE', #224, 2.000000000000000000 ) ;
#84 = APPROVAL_DATE_TIME ( #157, #102 ) ;
#85 = CARTESIAN_POINT ( 'NONE',  ( 0.000000000000000000, 0.000000000000000000, 400.0000000000000000 ) ) ;
#86 = CARTESIAN_POINT ( 'NONE',  ( 0.000000000000000000, 0.000000000000000000, 2.000000000000000000 ) ) ;
#87 = CARTESIAN_POINT ( 'NONE',  ( 0.000000000000000000, 0.000000000000000000, 2.000000000000000000 ) ) ;
#88 = CARTESIAN_POINT ( 'NONE',  ( 0.000000000000000000, 0.000000000000000000, 400.0000000000000000 ) ) ;
#89 = CARTESIAN_POINT ( 'NONE',  ( 0.000000000000000000, 0.000000000000000000, 2.000000000000000000 ) ) ;
#90 = CIRCLE ( 'NONE', #10, 1.000000000000000000 ) ;
#91 = CALENDAR_DATE ( 2023, 12, 2 ) ;
#92 = CC_DESIGN_PERSON_AND_ORGANIZATION_ASSIGNMENT ( #169, #189, ( #197 ) ) ;
#93 = CARTESIAN_POINT ( 'NONE',  ( -1.000000000000000000, 0.000000000000000000, 400.0000000000000000 ) ) ;
#94 = APPROVAL_STATUS ( 'not_yet_approved' ) ;
#95 = CARTESIAN_POINT ( 'NONE',  ( 0.000000000000000000, 0.000000000000000000, 0.000000000000000000 ) ) ;
#96 = ORGANIZATION ( 'NEURÈENÝ', 'NEURÈENÝ', '' ) ;
#97 = CIRCLE ( 'NONE', #171, 2.000000000000000000 ) ;
#98 = DIRECTION ( 'NONE',  ( -0.000000000000000000, -0.000000000000000000, -1.000000000000000000 ) ) ;
#99 = ADVANCED_FACE ( 'NONE', ( #232 ), #220, .T. ) ;
#100 = PLANE ( 'NONE',  #246 ) ;
#101 = VERTEX_POINT ( 'NONE', #194 ) ;
#102 = APPROVAL ( #113, 'NEURÈENÝ' ) ;
#103 = ORIENTED_EDGE ( 'NONE', *, *, #139, .T. ) ;
#104 = CALENDAR_DATE ( 2023, 12, 2 ) ;
#105 = VERTEX_POINT ( 'NONE', #1 ) ;
#106 = PERSON_AND_ORGANIZATION ( #212, #96 ) ;
#107 = ORIENTED_EDGE ( 'NONE', *, *, #227, .T. ) ;
#108 = CARTESIAN_POINT ( 'NONE',  ( -1.000000000000000000, 0.000000000000000000, 400.0000000000000000 ) ) ;
#109 = DIRECTION ( 'NONE',  ( 0.000000000000000000, 0.000000000000000000, 1.000000000000000000 ) ) ;
#110 = APPROVAL_PERSON_ORGANIZATION ( #106, #45, #117 ) ;
#111 = APPROVAL_DATE_TIME ( #78, #45 ) ;
#112 = PERSON_AND_ORGANIZATION ( #212, #96 ) ;
#113 = APPROVAL_STATUS ( 'not_yet_approved' ) ;
#114 = APPROVAL_ROLE ( '' ) ;
#115 = DIRECTION ( 'NONE',  ( -0.000000000000000000, -0.000000000000000000, -1.000000000000000000 ) ) ;
#116 = CC_DESIGN_APPROVAL ( #45, ( #185 ) ) ;
#117 = APPROVAL_ROLE ( '' ) ;
#118 = ADVANCED_FACE ( 'NONE', ( #159 ), #100, .T. ) ;
#119 = EDGE_LOOP ( 'NONE', ( #237, #63, #196, #165 ) ) ;
#120 = EDGE_CURVE ( 'NONE', #198, #101, #28, .T. ) ;
#121 = ORIENTED_EDGE ( 'NONE', *, *, #227, .F. ) ;
#122 = CARTESIAN_POINT ( 'NONE',  ( -2.000000000000000000, 0.000000000000000000, 2.000000000000000000 ) ) ;
#123 = PRODUCT_DEFINITION_SHAPE ( 'NONE', 'NONE',  #197 ) ;
#124 = PRODUCT_RELATED_PRODUCT_CATEGORY ( 'detail', '', ( #216 ) ) ;
#125 = CARTESIAN_POINT ( 'NONE',  ( 2.000000000000000000, 2.449293598294706414E-16, 2.000000000000000000 ) ) ;
#126 =( NAMED_UNIT ( * ) SI_UNIT ( $, .STERADIAN. ) SOLID_ANGLE_UNIT ( ) );
#127 = DIRECTION ( 'NONE',  ( -1.000000000000000000, 0.000000000000000000, 0.000000000000000000 ) ) ;
#128 = CARTESIAN_POINT ( 'NONE',  ( 0.000000000000000000, 0.000000000000000000, 0.000000000000000000 ) ) ;
#129 = APPROVAL_ROLE ( '' ) ;
#130 = VECTOR ( 'NONE', #219, 1000.000000000000000 ) ;
#131 = CARTESIAN_POINT ( 'NONE',  ( 0.000000000000000000, 0.000000000000000000, 2.000000000000000000 ) ) ;
#132 = DATE_TIME_ROLE ( 'classification_date' ) ;
#133 = DIRECTION ( 'NONE',  ( -1.000000000000000000, 0.000000000000000000, 0.000000000000000000 ) ) ;
#134 = CALENDAR_DATE ( 2023, 12, 2 ) ;
#135 = DIRECTION ( 'NONE',  ( 0.000000000000000000, 0.000000000000000000, 1.000000000000000000 ) ) ;
#136 = VECTOR ( 'NONE', #202, 1000.000000000000000 ) ;
#137 = PERSON_AND_ORGANIZATION_ROLE ( 'creator' ) ;
#138 = DIRECTION ( 'NONE',  ( 1.000000000000000000, 0.000000000000000000, 0.000000000000000000 ) ) ;
#139 = EDGE_CURVE ( 'NONE', #183, #101, #211, .T. ) ;
#140 = LINE ( 'NONE', #16, #130 ) ;
#141 = CARTESIAN_POINT ( 'NONE',  ( 0.000000000000000000, 0.000000000000000000, 2.000000000000000000 ) ) ;
#142 = CC_DESIGN_PERSON_AND_ORGANIZATION_ASSIGNMENT ( #46, #23, ( #216 ) ) ;
#143 = ORIENTED_EDGE ( 'NONE', *, *, #7, .F. ) ;
#144 = EDGE_LOOP ( 'NONE', ( #121, #44, #195, #143 ) ) ;
#145 = VERTEX_POINT ( 'NONE', #230 ) ;
#146 = EDGE_CURVE ( 'NONE', #183, #4, #97, .T. ) ;
#147 = AXIS2_PLACEMENT_3D ( 'NONE', #192, #251, #74 ) ;
#148 = AXIS2_PLACEMENT_3D ( 'NONE', #85, #243, #64 ) ;
#149 = CYLINDRICAL_SURFACE ( 'NONE', #33, 1.000000000000000000 ) ;
#150 = EDGE_CURVE ( 'NONE', #4, #198, #140, .T. ) ;
#151 = DIRECTION ( 'NONE',  ( -1.000000000000000000, 0.000000000000000000, 0.000000000000000000 ) ) ;
#152 = DATE_TIME_ROLE ( 'creation_date' ) ;
#153 = DIRECTION ( 'NONE',  ( 1.000000000000000000, 0.000000000000000000, -0.000000000000000000 ) ) ;
#154 =( NAMED_UNIT ( * ) PLANE_ANGLE_UNIT ( ) SI_UNIT ( $, .RADIAN. ) );
#155 = PERSON_AND_ORGANIZATION ( #212, #96 ) ;
#156 =( LENGTH_UNIT ( ) NAMED_UNIT ( * ) SI_UNIT ( .MILLI., .METRE. ) );
#157 = DATE_AND_TIME ( #104, #69 ) ;
#158 = PERSON_AND_ORGANIZATION ( #212, #96 ) ;
#159 = FACE_OUTER_BOUND ( 'NONE', #18, .T. ) ;
#160 = CC_DESIGN_DATE_AND_TIME_ASSIGNMENT ( #206, #152, ( #197 ) ) ;
#161 = DIRECTION ( 'NONE',  ( 0.000000000000000000, 0.000000000000000000, 1.000000000000000000 ) ) ;
#162 = DIRECTION ( 'NONE',  ( 0.000000000000000000, 0.000000000000000000, 1.000000000000000000 ) ) ;
#163 = EDGE_LOOP ( 'NONE', ( #60, #24 ) ) ;
#164 = ORIENTED_EDGE ( 'NONE', *, *, #236, .T. ) ;
#165 = ORIENTED_EDGE ( 'NONE', *, *, #255, .T. ) ;
#166 = EDGE_CURVE ( 'NONE', #4, #183, #83, .T. ) ;
#167 = CALENDAR_DATE ( 2023, 12, 2 ) ;
#168 = EDGE_LOOP ( 'NONE', ( #5, #213, #238, #79 ) ) ;
#169 = PERSON_AND_ORGANIZATION ( #212, #96 ) ;
#170 = LOCAL_TIME ( 13, 51, 33.00000000000000000, #228 ) ;
#171 = AXIS2_PLACEMENT_3D ( 'NONE', #141, #55, #138 ) ;
#172 = FACE_OUTER_BOUND ( 'NONE', #144, .T. ) ;
#173 = CARTESIAN_POINT ( 'NONE',  ( 0.000000000000000000, 0.000000000000000000, 2.000000000000000000 ) ) ;
#174 = APPLICATION_PROTOCOL_DEFINITION ( 'international standard', 'config_control_design', 1994, #240 ) ;
#175 = DIRECTION ( 'NONE',  ( -0.000000000000000000, -0.000000000000000000, -1.000000000000000000 ) ) ;
#176 = APPROVAL_DATE_TIME ( #187, #208 ) ;
#177 = PLANE ( 'NONE',  #239 ) ;
#178 = AXIS2_PLACEMENT_3D ( 'NONE', #254, #71, #77 ) ;
#179 = CARTESIAN_POINT ( 'NONE',  ( 1.000000000000000000, 1.224646799147353207E-16, 400.0000000000000000 ) ) ;
#180 = EDGE_CURVE ( 'NONE', #234, #105, #8, .T. ) ;
#181 = ORIENTED_EDGE ( 'NONE', *, *, #146, .T. ) ;
#182 = APPROVAL_STATUS ( 'not_yet_approved' ) ;
#183 = VERTEX_POINT ( 'NONE', #125 ) ;
#184 = ADVANCED_FACE ( 'NONE', ( #29 ), #222, .T. ) ;
#185 = PRODUCT_DEFINITION_FORMATION_WITH_SPECIFIED_SOURCE ( 'LIBOVOLNÝ', '', #216, .NOT_KNOWN. ) ;
#186 = CARTESIAN_POINT ( 'NONE',  ( -2.000000000000000000, 0.000000000000000000, 0.000000000000000000 ) ) ;
#187 = DATE_AND_TIME ( #91, #199 ) ;
#188 = FACE_OUTER_BOUND ( 'NONE', #22, .T. ) ;
#189 = PERSON_AND_ORGANIZATION_ROLE ( 'creator' ) ;
#190 = COORDINATED_UNIVERSAL_TIME_OFFSET ( 1, 0, .AHEAD. ) ;
#191 = APPROVAL_PERSON_ORGANIZATION ( #158, #102, #129 ) ;
#192 = CARTESIAN_POINT ( 'NONE',  ( 0.000000000000000000, 0.000000000000000000, 400.0000000000000000 ) ) ;
#193 = AXIS2_PLACEMENT_3D ( 'NONE', #95, #161, #35 ) ;
#194 = CARTESIAN_POINT ( 'NONE',  ( 2.000000000000000000, 2.449293598294706414E-16, 0.000000000000000000 ) ) ;
#195 = ORIENTED_EDGE ( 'NONE', *, *, #17, .T. ) ;
#196 = ORIENTED_EDGE ( 'NONE', *, *, #7, .T. ) ;
#197 = PRODUCT_DEFINITION ( 'NEZNÁMÝ', '', #185, #36 ) ;
#198 = VERTEX_POINT ( 'NONE', #186 ) ;
#199 = LOCAL_TIME ( 13, 51, 33.00000000000000000, #204 ) ;
#200 = APPROVAL_PERSON_ORGANIZATION ( #47, #208, #114 ) ;
#201 = CLOSED_SHELL ( 'NONE', ( #42, #184, #99, #80, #214, #76, #118 ) ) ;
#202 = DIRECTION ( 'NONE',  ( -0.000000000000000000, -0.000000000000000000, -1.000000000000000000 ) ) ;
#203 = DIRECTION ( 'NONE',  ( 0.000000000000000000, 0.000000000000000000, 1.000000000000000000 ) ) ;
#204 = COORDINATED_UNIVERSAL_TIME_OFFSET ( 1, 0, .AHEAD. ) ;
#205 = DIRECTION ( 'NONE',  ( 1.000000000000000000, 0.000000000000000000, -0.000000000000000000 ) ) ;
#206 = DATE_AND_TIME ( #167, #170 ) ;
#207 = DIRECTION ( 'NONE',  ( 0.000000000000000000, 0.000000000000000000, 1.000000000000000000 ) ) ;
#208 = APPROVAL ( #94, 'NEURÈENÝ' ) ;
#209 = CALENDAR_DATE ( 2023, 12, 2 ) ;
#210 = CIRCLE ( 'NONE', #57, 1.000000000000000000 ) ;
#211 = LINE ( 'NONE', #38, #21 ) ;
#212 = PERSON ( 'NEURÈENÝ', 'NEURÈENÝ', 'NEURÈENÝ', ('NEURÈENÝ'), ('NEURÈENÝ'), ('NEURÈENÝ') ) ;
#213 = ORIENTED_EDGE ( 'NONE', *, *, #166, .F. ) ;
#214 = ADVANCED_FACE ( 'NONE', ( #188 ), #177, .F. ) ;
#215 = ORIENTED_EDGE ( 'NONE', *, *, #150, .F. ) ;
#216 = PRODUCT ( '8579', '8579', '', ( #249 ) ) ;
#217 = CARTESIAN_POINT ( 'NONE',  ( 0.000000000000000000, 0.000000000000000000, 400.0000000000000000 ) ) ;
#218 = FACE_OUTER_BOUND ( 'NONE', #119, .T. ) ;
#219 = DIRECTION ( 'NONE',  ( -0.000000000000000000, -0.000000000000000000, -1.000000000000000000 ) ) ;
#220 = CYLINDRICAL_SURFACE ( 'NONE', #70, 2.000000000000000000 ) ;
#221 = EDGE_CURVE ( 'NONE', #105, #145, #11, .T. ) ;
#222 = CYLINDRICAL_SURFACE ( 'NONE', #245, 2.000000000000000000 ) ;
#223 = VECTOR ( 'NONE', #115, 1000.000000000000000 ) ;
#224 = AXIS2_PLACEMENT_3D ( 'NONE', #173, #248, #253 ) ;
#225 = PERSON_AND_ORGANIZATION ( #212, #96 ) ;
#226 = ADVANCED_BREP_SHAPE_REPRESENTATION ( '8579', ( #26, #32 ), #61 ) ;
#227 = EDGE_CURVE ( 'NONE', #105, #234, #68, .T. ) ;
#228 = COORDINATED_UNIVERSAL_TIME_OFFSET ( 1, 0, .AHEAD. ) ;
#229 = PERSON_AND_ORGANIZATION_ROLE ( 'design_supplier' ) ;
#230 = CARTESIAN_POINT ( 'NONE',  ( 1.000000000000000000, 1.224646799147353207E-16, 2.000000000000000000 ) ) ;
#231 = AXIS2_PLACEMENT_3D ( 'NONE', #87, #2, #153 ) ;
#232 = FACE_OUTER_BOUND ( 'NONE', #168, .T. ) ;
#233 = UNCERTAINTY_MEASURE_WITH_UNIT (LENGTH_MEASURE( 1.000000000000000082E-05 ), #156, 'distance_accuracy_value', 'NONE');
#234 = VERTEX_POINT ( 'NONE', #93 ) ;
#235 = ORIENTED_EDGE ( 'NONE', *, *, #120, .F. ) ;
#236 = EDGE_CURVE ( 'NONE', #101, #198, #27, .T. ) ;
#237 = ORIENTED_EDGE ( 'NONE', *, *, #221, .F. ) ;
#238 = ORIENTED_EDGE ( 'NONE', *, *, #150, .T. ) ;
#239 = AXIS2_PLACEMENT_3D ( 'NONE', #128, #135, #205 ) ;
#240 = APPLICATION_CONTEXT ( 'configuration controlled 3d designs of mechanical parts and assemblies' ) ;
#241 = ORIENTED_EDGE ( 'NONE', *, *, #146, .F. ) ;
#242 = DIRECTION ( 'NONE',  ( 1.000000000000000000, 0.000000000000000000, 0.000000000000000000 ) ) ;
#243 = DIRECTION ( 'NONE',  ( -0.000000000000000000, -0.000000000000000000, -1.000000000000000000 ) ) ;
#244 = LINE ( 'NONE', #108, #136 ) ;
#245 = AXIS2_PLACEMENT_3D ( 'NONE', #131, #30, #133 ) ;
#246 = AXIS2_PLACEMENT_3D ( 'NONE', #56, #162, #59 ) ;
#247 = DIRECTION ( 'NONE',  ( -0.000000000000000000, -0.000000000000000000, -1.000000000000000000 ) ) ;
#248 = DIRECTION ( 'NONE',  ( 0.000000000000000000, 0.000000000000000000, 1.000000000000000000 ) ) ;
#249 = MECHANICAL_CONTEXT ( 'NONE', #72, 'mechanical' ) ;
#250 = SHAPE_DEFINITION_REPRESENTATION ( #123, #226 ) ;
#251 = DIRECTION ( 'NONE',  ( 0.000000000000000000, 0.000000000000000000, 1.000000000000000000 ) ) ;
#252 = SECURITY_CLASSIFICATION_LEVEL ( 'unclassified' ) ;
#253 = DIRECTION ( 'NONE',  ( 1.000000000000000000, 0.000000000000000000, 0.000000000000000000 ) ) ;
#254 = CARTESIAN_POINT ( 'NONE',  ( 0.000000000000000000, 0.000000000000000000, 0.000000000000000000 ) ) ;
#255 = EDGE_CURVE ( 'NONE', #82, #145, #210, .T. ) ;
ENDSEC;
END-ISO-10303-21;
