ISO-10303-21;
HEADER;
FILE_DESCRIPTION (( 'STEP AP203' ),
    '1' );
FILE_NAME ('ea01.STEP',
    '2023-02-12T11:45:04',
    ( '' ),
    ( '' ),
    'SwSTEP 2.0',
    'SolidWorks 2019',
    '' );
FILE_SCHEMA (( 'CONFIG_CONTROL_DESIGN' ));
ENDSEC;

DATA;
#1 = LINE ( 'NONE', #240, #216 ) ;
#2 = AXIS2_PLACEMENT_3D ( 'NONE', #129, #65, #45 ) ;
#3 = CARTESIAN_POINT ( 'NONE',  ( 7.000000000000000000, 8.572527594031473190E-16, 5.000000000000000000 ) ) ;
#4 = ADVANCED_FACE ( 'NONE', ( #55 ), #189, .T. ) ;
#5 = PERSON_AND_ORGANIZATION ( #199, #72 ) ;
#6 = CIRCLE ( 'NONE', #158, 4.099999999999999645 ) ;
#7 = CARTESIAN_POINT ( 'NONE',  ( 0.000000000000000000, 0.000000000000000000, 5.000000000000000000 ) ) ;
#8 = DIRECTION ( 'NONE',  ( 1.000000000000000000, 0.000000000000000000, 0.000000000000000000 ) ) ;
#9 = AXIS2_PLACEMENT_3D ( 'NONE', #202, #48, #182 ) ;
#10 = ORIENTED_EDGE ( 'NONE', *, *, #161, .F. ) ;
#11 = ADVANCED_FACE ( 'NONE', ( #204 ), #109, .T. ) ;
#12 = ORIENTED_EDGE ( 'NONE', *, *, #152, .F. ) ;
#13 = ORIENTED_EDGE ( 'NONE', *, *, #147, .T. ) ;
#14 = CALENDAR_DATE ( 2023, 12, 2 ) ;
#15 = ORIENTED_EDGE ( 'NONE', *, *, #34, .F. ) ;
#16 = CIRCLE ( 'NONE', #248, 4.099999999999999645 ) ;
#17 = VERTEX_POINT ( 'NONE', #172 ) ;
#18 = CARTESIAN_POINT ( 'NONE',  ( -7.000000000000000000, 0.000000000000000000, 5.000000000000000000 ) ) ;
#19 = APPLICATION_CONTEXT ( 'configuration controlled 3d designs of mechanical parts and assemblies' ) ;
#20 = DATE_TIME_ROLE ( 'creation_date' ) ;
#21 = FACE_BOUND ( 'NONE', #192, .T. ) ;
#22 =( NAMED_UNIT ( * ) PLANE_ANGLE_UNIT ( ) SI_UNIT ( $, .RADIAN. ) );
#23 = APPROVAL_STATUS ( 'not_yet_approved' ) ;
#24 = CC_DESIGN_PERSON_AND_ORGANIZATION_ASSIGNMENT ( #234, #247, ( #252 ) ) ;
#25 = CIRCLE ( 'NONE', #175, 7.000000000000000000 ) ;
#26 = CARTESIAN_POINT ( 'NONE',  ( 4.099999999999999645, 5.021051876504147385E-16, 5.000000000000000000 ) ) ;
#27 = DIRECTION ( 'NONE',  ( 1.000000000000000000, 0.000000000000000000, 0.000000000000000000 ) ) ;
#28 = EDGE_CURVE ( 'NONE', #38, #155, #16, .T. ) ;
#29 = EDGE_LOOP ( 'NONE', ( #51, #13, #123, #124 ) ) ;
#30 = PRODUCT ( 'ea01', 'ea01', '', ( #103 ) ) ;
#31 = AXIS2_PLACEMENT_3D ( 'NONE', #227, #229, #127 ) ;
#32 = CC_DESIGN_APPROVAL ( #186, ( #249 ) ) ;
#33 = ORIENTED_EDGE ( 'NONE', *, *, #92, .T. ) ;
#34 = EDGE_CURVE ( 'NONE', #193, #17, #63, .T. ) ;
#35 = APPLICATION_CONTEXT ( 'configuration controlled 3d designs of mechanical parts and assemblies' ) ;
#36 = CARTESIAN_POINT ( 'NONE',  ( 0.000000000000000000, 0.000000000000000000, 800.0000000000000000 ) ) ;
#37 = AXIS2_PLACEMENT_3D ( 'NONE', #97, #180, #184 ) ;
#38 = VERTEX_POINT ( 'NONE', #74 ) ;
#39 = APPROVAL_STATUS ( 'not_yet_approved' ) ;
#40 = EDGE_LOOP ( 'NONE', ( #41, #208, #188, #10 ) ) ;
#41 = ORIENTED_EDGE ( 'NONE', *, *, #214, .F. ) ;
#42 = APPLICATION_PROTOCOL_DEFINITION ( 'international standard', 'config_control_design', 1994, #35 ) ;
#43 = AXIS2_PLACEMENT_3D ( 'NONE', #223, #82, #87 ) ;
#44 = CIRCLE ( 'NONE', #121, 4.099999999999999645 ) ;
#45 = DIRECTION ( 'NONE',  ( 1.000000000000000000, 0.000000000000000000, -0.000000000000000000 ) ) ;
#46 = DATE_AND_TIME ( #212, #57 ) ;
#47 = EDGE_CURVE ( 'NONE', #155, #38, #6, .T. ) ;
#48 = DIRECTION ( 'NONE',  ( 0.000000000000000000, 0.000000000000000000, 1.000000000000000000 ) ) ;
#49 = ADVANCED_FACE ( 'NONE', ( #79 ), #76, .T. ) ;
#50 = DIRECTION ( 'NONE',  ( -0.000000000000000000, -0.000000000000000000, -1.000000000000000000 ) ) ;
#51 = ORIENTED_EDGE ( 'NONE', *, *, #28, .F. ) ;
#52 = DIRECTION ( 'NONE',  ( 1.000000000000000000, 0.000000000000000000, 0.000000000000000000 ) ) ;
#53 = AXIS2_PLACEMENT_3D ( 'NONE', #89, #253, #60 ) ;
#54 = CC_DESIGN_APPROVAL ( #181, ( #203 ) ) ;
#55 = FACE_OUTER_BOUND ( 'NONE', #108, .T. ) ;
#56 = ORIENTED_EDGE ( 'NONE', *, *, #222, .T. ) ;
#57 = LOCAL_TIME ( 12, 45, 4.000000000000000000, #64 ) ;
#58 = ORIENTED_EDGE ( 'NONE', *, *, #80, .F. ) ;
#59 = PERSON_AND_ORGANIZATION ( #199, #72 ) ;
#60 = DIRECTION ( 'NONE',  ( 1.000000000000000000, 0.000000000000000000, 0.000000000000000000 ) ) ;
#61 = APPROVAL_STATUS ( 'not_yet_approved' ) ;
#62 = VERTEX_POINT ( 'NONE', #166 ) ;
#63 = CIRCLE ( 'NONE', #53, 4.099999999999999645 ) ;
#64 = COORDINATED_UNIVERSAL_TIME_OFFSET ( 1, 0, .AHEAD. ) ;
#65 = DIRECTION ( 'NONE',  ( 0.000000000000000000, 0.000000000000000000, 1.000000000000000000 ) ) ;
#66 = PLANE ( 'NONE',  #140 ) ;
#67 = FACE_OUTER_BOUND ( 'NONE', #91, .T. ) ;
#68 = ADVANCED_FACE ( 'NONE', ( #21, #115 ), #213, .T. ) ;
#69 = PERSON_AND_ORGANIZATION_ROLE ( 'classification_officer' ) ;
#70 = DIRECTION ( 'NONE',  ( -0.000000000000000000, -0.000000000000000000, -1.000000000000000000 ) ) ;
#71 = VECTOR ( 'NONE', #70, 1000.000000000000000 ) ;
#72 = ORGANIZATION ( 'NEURÈENÝ', 'NEURÈENÝ', '' ) ;
#73 = UNCERTAINTY_MEASURE_WITH_UNIT (LENGTH_MEASURE( 1.000000000000000082E-05 ), #114, 'distance_accuracy_value', 'NONE');
#74 = CARTESIAN_POINT ( 'NONE',  ( 4.099999999999999645, 5.021051876504147385E-16, 800.0000000000000000 ) ) ;
#75 = APPLICATION_PROTOCOL_DEFINITION ( 'international standard', 'config_control_design', 1994, #19 ) ;
#76 = CYLINDRICAL_SURFACE ( 'NONE', #31, 4.099999999999999645 ) ;
#77 = CARTESIAN_POINT ( 'NONE',  ( 0.000000000000000000, 0.000000000000000000, 800.0000000000000000 ) ) ;
#78 = DIRECTION ( 'NONE',  ( -1.000000000000000000, 0.000000000000000000, 0.000000000000000000 ) ) ;
#79 = FACE_OUTER_BOUND ( 'NONE', #29, .T. ) ;
#80 = EDGE_CURVE ( 'NONE', #62, #209, #134, .T. ) ;
#81 = PERSON_AND_ORGANIZATION_ROLE ( 'design_supplier' ) ;
#82 = DIRECTION ( 'NONE',  ( 0.000000000000000000, 0.000000000000000000, 1.000000000000000000 ) ) ;
#83 = LINE ( 'NONE', #242, #71 ) ;
#84 = CIRCLE ( 'NONE', #106, 7.000000000000000000 ) ;
#85 = CARTESIAN_POINT ( 'NONE',  ( -7.000000000000000000, 0.000000000000000000, 5.000000000000000000 ) ) ;
#86 = MANIFOLD_SOLID_BREP ( 'Pøidat vysunutím3', #220 ) ;
#87 = DIRECTION ( 'NONE',  ( 1.000000000000000000, 0.000000000000000000, -0.000000000000000000 ) ) ;
#88 =( GEOMETRIC_REPRESENTATION_CONTEXT ( 3 ) GLOBAL_UNCERTAINTY_ASSIGNED_CONTEXT ( ( #73 ) ) GLOBAL_UNIT_ASSIGNED_CONTEXT ( ( #114, #22, #122 ) ) REPRESENTATION_CONTEXT ( 'NONE', 'WORKASPACE' ) );
#89 = CARTESIAN_POINT ( 'NONE',  ( 0.000000000000000000, 0.000000000000000000, 5.000000000000000000 ) ) ;
#90 = DIRECTION ( 'NONE',  ( -1.000000000000000000, 0.000000000000000000, 0.000000000000000000 ) ) ;
#91 = EDGE_LOOP ( 'NONE', ( #244, #93 ) ) ;
#92 = EDGE_CURVE ( 'NONE', #155, #17, #200, .T. ) ;
#93 = ORIENTED_EDGE ( 'NONE', *, *, #28, .T. ) ;
#94 = DIRECTION ( 'NONE',  ( 0.000000000000000000, 0.000000000000000000, 1.000000000000000000 ) ) ;
#95 = CC_DESIGN_PERSON_AND_ORGANIZATION_ASSIGNMENT ( #255, #81, ( #249 ) ) ;
#96 = FACE_OUTER_BOUND ( 'NONE', #210, .T. ) ;
#97 = CARTESIAN_POINT ( 'NONE',  ( 0.000000000000000000, 0.000000000000000000, 0.000000000000000000 ) ) ;
#98 = APPROVAL_PERSON_ORGANIZATION ( #231, #186, #110 ) ;
#99 = CC_DESIGN_PERSON_AND_ORGANIZATION_ASSIGNMENT ( #5, #69, ( #203 ) ) ;
#100 = CARTESIAN_POINT ( 'NONE',  ( 0.000000000000000000, 0.000000000000000000, 5.000000000000000000 ) ) ;
#101 = CARTESIAN_POINT ( 'NONE',  ( 0.000000000000000000, 0.000000000000000000, 5.000000000000000000 ) ) ;
#102 = ADVANCED_FACE ( 'NONE', ( #241 ), #215, .T. ) ;
#103 = MECHANICAL_CONTEXT ( 'NONE', #19, 'mechanical' ) ;
#104 = ORIENTED_EDGE ( 'NONE', *, *, #196, .T. ) ;
#105 = ORIENTED_EDGE ( 'NONE', *, *, #191, .T. ) ;
#106 = AXIS2_PLACEMENT_3D ( 'NONE', #162, #211, #8 ) ;
#107 = DIRECTION ( 'NONE',  ( -0.000000000000000000, -0.000000000000000000, -1.000000000000000000 ) ) ;
#108 = EDGE_LOOP ( 'NONE', ( #148, #246, #33, #104 ) ) ;
#109 = CYLINDRICAL_SURFACE ( 'NONE', #228, 7.000000000000000000 ) ;
#110 = APPROVAL_ROLE ( '' ) ;
#111 = CIRCLE ( 'NONE', #9, 7.000000000000000000 ) ;
#112 = CARTESIAN_POINT ( 'NONE',  ( -7.000000000000000000, 0.000000000000000000, 0.000000000000000000 ) ) ;
#113 = APPROVAL_DATE_TIME ( #46, #186 ) ;
#114 =( LENGTH_UNIT ( ) NAMED_UNIT ( * ) SI_UNIT ( .MILLI., .METRE. ) );
#115 = FACE_OUTER_BOUND ( 'NONE', #170, .T. ) ;
#116 = AXIS2_PLACEMENT_3D ( 'NONE', #225, #141, #52 ) ;
#117 = LOCAL_TIME ( 12, 45, 4.000000000000000000, #219 ) ;
#118 = APPROVAL_DATE_TIME ( #165, #181 ) ;
#119 = AXIS2_PLACEMENT_3D ( 'NONE', #36, #107, #90 ) ;
#120 = DIRECTION ( 'NONE',  ( -0.000000000000000000, -0.000000000000000000, -1.000000000000000000 ) ) ;
#121 = AXIS2_PLACEMENT_3D ( 'NONE', #100, #139, #27 ) ;
#122 =( NAMED_UNIT ( * ) SI_UNIT ( $, .STERADIAN. ) SOLID_ANGLE_UNIT ( ) );
#123 = ORIENTED_EDGE ( 'NONE', *, *, #34, .T. ) ;
#124 = ORIENTED_EDGE ( 'NONE', *, *, #92, .F. ) ;
#125 = APPROVAL_PERSON_ORGANIZATION ( #237, #164, #130 ) ;
#126 = PERSON_AND_ORGANIZATION_ROLE ( 'design_owner' ) ;
#127 = DIRECTION ( 'NONE',  ( -1.000000000000000000, 0.000000000000000000, 0.000000000000000000 ) ) ;
#128 = DIRECTION ( 'NONE',  ( 0.000000000000000000, 0.000000000000000000, 1.000000000000000000 ) ) ;
#129 = CARTESIAN_POINT ( 'NONE',  ( 0.000000000000000000, 0.000000000000000000, 800.0000000000000000 ) ) ;
#130 = APPROVAL_ROLE ( '' ) ;
#131 = DIRECTION ( 'NONE',  ( 1.000000000000000000, 0.000000000000000000, -0.000000000000000000 ) ) ;
#132 = PRODUCT_RELATED_PRODUCT_CATEGORY ( 'detail', '', ( #30 ) ) ;
#133 = PRODUCT_DEFINITION_SHAPE ( 'NONE', 'NONE',  #252 ) ;
#134 = CIRCLE ( 'NONE', #37, 7.000000000000000000 ) ;
#135 = DATE_TIME_ROLE ( 'classification_date' ) ;
#136 = CC_DESIGN_DATE_AND_TIME_ASSIGNMENT ( #137, #135, ( #203 ) ) ;
#137 = DATE_AND_TIME ( #201, #117 ) ;
#138 = VECTOR ( 'NONE', #120, 1000.000000000000000 ) ;
#139 = DIRECTION ( 'NONE',  ( 0.000000000000000000, 0.000000000000000000, 1.000000000000000000 ) ) ;
#140 = AXIS2_PLACEMENT_3D ( 'NONE', #178, #254, #131 ) ;
#141 = DIRECTION ( 'NONE',  ( 0.000000000000000000, 0.000000000000000000, 1.000000000000000000 ) ) ;
#142 = CC_DESIGN_PERSON_AND_ORGANIZATION_ASSIGNMENT ( #59, #126, ( #30 ) ) ;
#143 = ADVANCED_BREP_SHAPE_REPRESENTATION ( 'ea01', ( #86, #116 ), #88 ) ;
#144 = LOCAL_TIME ( 12, 45, 4.000000000000000000, #156 ) ;
#145 = DESIGN_CONTEXT ( 'detailed design', #35, 'design' ) ;
#146 = DIRECTION ( 'NONE',  ( 1.000000000000000000, 0.000000000000000000, 0.000000000000000000 ) ) ;
#147 = EDGE_CURVE ( 'NONE', #38, #193, #83, .T. ) ;
#148 = ORIENTED_EDGE ( 'NONE', *, *, #147, .F. ) ;
#149 = CARTESIAN_POINT ( 'NONE',  ( 0.000000000000000000, 0.000000000000000000, 800.0000000000000000 ) ) ;
#150 = CC_DESIGN_SECURITY_CLASSIFICATION ( #203, ( #249 ) ) ;
#151 = CALENDAR_DATE ( 2023, 12, 2 ) ;
#152 = EDGE_CURVE ( 'NONE', #174, #62, #1, .T. ) ;
#153 = ORIENTED_EDGE ( 'NONE', *, *, #214, .T. ) ;
#154 = DATE_AND_TIME ( #151, #207 ) ;
#155 = VERTEX_POINT ( 'NONE', #160 ) ;
#156 = COORDINATED_UNIVERSAL_TIME_OFFSET ( 1, 0, .AHEAD. ) ;
#157 = DIRECTION ( 'NONE',  ( -0.000000000000000000, -0.000000000000000000, -1.000000000000000000 ) ) ;
#158 = AXIS2_PLACEMENT_3D ( 'NONE', #149, #128, #146 ) ;
#159 = SECURITY_CLASSIFICATION_LEVEL ( 'unclassified' ) ;
#160 = CARTESIAN_POINT ( 'NONE',  ( -4.099999999999999645, 0.000000000000000000, 800.0000000000000000 ) ) ;
#161 = EDGE_CURVE ( 'NONE', #230, #209, #238, .T. ) ;
#162 = CARTESIAN_POINT ( 'NONE',  ( 0.000000000000000000, 0.000000000000000000, 0.000000000000000000 ) ) ;
#163 = PERSON_AND_ORGANIZATION ( #199, #72 ) ;
#164 = APPROVAL ( #39, 'NEURÈENÝ' ) ;
#165 = DATE_AND_TIME ( #217, #169 ) ;
#166 = CARTESIAN_POINT ( 'NONE',  ( 7.000000000000000000, 8.572527594031473190E-16, 0.000000000000000000 ) ) ;
#167 = CARTESIAN_POINT ( 'NONE',  ( -4.099999999999999645, 0.000000000000000000, 800.0000000000000000 ) ) ;
#168 = CC_DESIGN_APPROVAL ( #164, ( #252 ) ) ;
#169 = LOCAL_TIME ( 12, 45, 4.000000000000000000, #218 ) ;
#170 = EDGE_LOOP ( 'NONE', ( #105, #153 ) ) ;
#171 = CARTESIAN_POINT ( 'NONE',  ( 0.000000000000000000, 0.000000000000000000, 5.000000000000000000 ) ) ;
#172 = CARTESIAN_POINT ( 'NONE',  ( -4.099999999999999645, 0.000000000000000000, 5.000000000000000000 ) ) ;
#173 = DATE_AND_TIME ( #14, #144 ) ;
#174 = VERTEX_POINT ( 'NONE', #3 ) ;
#175 = AXIS2_PLACEMENT_3D ( 'NONE', #101, #198, #185 ) ;
#176 = APPROVAL_DATE_TIME ( #173, #164 ) ;
#177 = EDGE_LOOP ( 'NONE', ( #12, #190, #205, #56 ) ) ;
#178 = CARTESIAN_POINT ( 'NONE',  ( 0.000000000000000000, 0.000000000000000000, 0.000000000000000000 ) ) ;
#179 = PERSON_AND_ORGANIZATION_ROLE ( 'creator' ) ;
#180 = DIRECTION ( 'NONE',  ( 0.000000000000000000, 0.000000000000000000, 1.000000000000000000 ) ) ;
#181 = APPROVAL ( #23, 'NEURÈENÝ' ) ;
#182 = DIRECTION ( 'NONE',  ( 1.000000000000000000, 0.000000000000000000, 0.000000000000000000 ) ) ;
#183 = APPROVAL_ROLE ( '' ) ;
#184 = DIRECTION ( 'NONE',  ( 1.000000000000000000, 0.000000000000000000, 0.000000000000000000 ) ) ;
#185 = DIRECTION ( 'NONE',  ( 1.000000000000000000, 0.000000000000000000, 0.000000000000000000 ) ) ;
#186 = APPROVAL ( #61, 'NEURÈENÝ' ) ;
#187 = CC_DESIGN_PERSON_AND_ORGANIZATION_ASSIGNMENT ( #195, #179, ( #249 ) ) ;
#188 = ORIENTED_EDGE ( 'NONE', *, *, #80, .T. ) ;
#189 = CYLINDRICAL_SURFACE ( 'NONE', #119, 4.099999999999999645 ) ;
#190 = ORIENTED_EDGE ( 'NONE', *, *, #191, .F. ) ;
#191 = EDGE_CURVE ( 'NONE', #230, #174, #111, .T. ) ;
#192 = EDGE_LOOP ( 'NONE', ( #226, #15 ) ) ;
#193 = VERTEX_POINT ( 'NONE', #26 ) ;
#194 = DIRECTION ( 'NONE',  ( -1.000000000000000000, 0.000000000000000000, 0.000000000000000000 ) ) ;
#195 = PERSON_AND_ORGANIZATION ( #199, #72 ) ;
#196 = EDGE_CURVE ( 'NONE', #17, #193, #44, .T. ) ;
#197 = DIRECTION ( 'NONE',  ( -0.000000000000000000, -0.000000000000000000, -1.000000000000000000 ) ) ;
#198 = DIRECTION ( 'NONE',  ( 0.000000000000000000, 0.000000000000000000, 1.000000000000000000 ) ) ;
#199 = PERSON ( 'NEURÈENÝ', 'NEURÈENÝ', 'NEURÈENÝ', ('NEURÈENÝ'), ('NEURÈENÝ'), ('NEURÈENÝ') ) ;
#200 = LINE ( 'NONE', #167, #138 ) ;
#201 = CALENDAR_DATE ( 2023, 12, 2 ) ;
#202 = CARTESIAN_POINT ( 'NONE',  ( 0.000000000000000000, 0.000000000000000000, 5.000000000000000000 ) ) ;
#203 = SECURITY_CLASSIFICATION ( '', '', #159 ) ;
#204 = FACE_OUTER_BOUND ( 'NONE', #40, .T. ) ;
#205 = ORIENTED_EDGE ( 'NONE', *, *, #161, .T. ) ;
#206 = AXIS2_PLACEMENT_3D ( 'NONE', #7, #197, #194 ) ;
#207 = LOCAL_TIME ( 12, 45, 4.000000000000000000, #251 ) ;
#208 = ORIENTED_EDGE ( 'NONE', *, *, #152, .T. ) ;
#209 = VERTEX_POINT ( 'NONE', #112 ) ;
#210 = EDGE_LOOP ( 'NONE', ( #232, #58 ) ) ;
#211 = DIRECTION ( 'NONE',  ( 0.000000000000000000, 0.000000000000000000, 1.000000000000000000 ) ) ;
#212 = CALENDAR_DATE ( 2023, 12, 2 ) ;
#213 = PLANE ( 'NONE',  #43 ) ;
#214 = EDGE_CURVE ( 'NONE', #174, #230, #25, .T. ) ;
#215 = CYLINDRICAL_SURFACE ( 'NONE', #206, 7.000000000000000000 ) ;
#216 = VECTOR ( 'NONE', #157, 1000.000000000000000 ) ;
#217 = CALENDAR_DATE ( 2023, 12, 2 ) ;
#218 = COORDINATED_UNIVERSAL_TIME_OFFSET ( 1, 0, .AHEAD. ) ;
#219 = COORDINATED_UNIVERSAL_TIME_OFFSET ( 1, 0, .AHEAD. ) ;
#220 = CLOSED_SHELL ( 'NONE', ( #49, #11, #102, #68, #239, #4, #224 ) ) ;
#221 = SHAPE_DEFINITION_REPRESENTATION ( #133, #143 ) ;
#222 = EDGE_CURVE ( 'NONE', #209, #62, #84, .T. ) ;
#223 = CARTESIAN_POINT ( 'NONE',  ( 0.000000000000000000, 0.000000000000000000, 5.000000000000000000 ) ) ;
#224 = ADVANCED_FACE ( 'NONE', ( #67 ), #235, .T. ) ;
#225 = CARTESIAN_POINT ( 'NONE',  ( 0.000000000000000000, 0.000000000000000000, 0.000000000000000000 ) ) ;
#226 = ORIENTED_EDGE ( 'NONE', *, *, #196, .F. ) ;
#227 = CARTESIAN_POINT ( 'NONE',  ( 0.000000000000000000, 0.000000000000000000, 800.0000000000000000 ) ) ;
#228 = AXIS2_PLACEMENT_3D ( 'NONE', #171, #250, #78 ) ;
#229 = DIRECTION ( 'NONE',  ( -0.000000000000000000, -0.000000000000000000, -1.000000000000000000 ) ) ;
#230 = VERTEX_POINT ( 'NONE', #18 ) ;
#231 = PERSON_AND_ORGANIZATION ( #199, #72 ) ;
#232 = ORIENTED_EDGE ( 'NONE', *, *, #222, .F. ) ;
#233 = CC_DESIGN_DATE_AND_TIME_ASSIGNMENT ( #154, #20, ( #252 ) ) ;
#234 = PERSON_AND_ORGANIZATION ( #199, #72 ) ;
#235 = PLANE ( 'NONE',  #2 ) ;
#236 = VECTOR ( 'NONE', #50, 1000.000000000000000 ) ;
#237 = PERSON_AND_ORGANIZATION ( #199, #72 ) ;
#238 = LINE ( 'NONE', #85, #236 ) ;
#239 = ADVANCED_FACE ( 'NONE', ( #96 ), #66, .F. ) ;
#240 = CARTESIAN_POINT ( 'NONE',  ( 7.000000000000000000, 8.572527594031473190E-16, 5.000000000000000000 ) ) ;
#241 = FACE_OUTER_BOUND ( 'NONE', #177, .T. ) ;
#242 = CARTESIAN_POINT ( 'NONE',  ( 4.099999999999999645, 5.021051876504147385E-16, 800.0000000000000000 ) ) ;
#243 = APPROVAL_PERSON_ORGANIZATION ( #163, #181, #183 ) ;
#244 = ORIENTED_EDGE ( 'NONE', *, *, #47, .T. ) ;
#245 = DIRECTION ( 'NONE',  ( 1.000000000000000000, 0.000000000000000000, 0.000000000000000000 ) ) ;
#246 = ORIENTED_EDGE ( 'NONE', *, *, #47, .F. ) ;
#247 = PERSON_AND_ORGANIZATION_ROLE ( 'creator' ) ;
#248 = AXIS2_PLACEMENT_3D ( 'NONE', #77, #94, #245 ) ;
#249 = PRODUCT_DEFINITION_FORMATION_WITH_SPECIFIED_SOURCE ( 'LIBOVOLNÝ', '', #30, .NOT_KNOWN. ) ;
#250 = DIRECTION ( 'NONE',  ( -0.000000000000000000, -0.000000000000000000, -1.000000000000000000 ) ) ;
#251 = COORDINATED_UNIVERSAL_TIME_OFFSET ( 1, 0, .AHEAD. ) ;
#252 = PRODUCT_DEFINITION ( 'NEZNÁMÝ', '', #249, #145 ) ;
#253 = DIRECTION ( 'NONE',  ( 0.000000000000000000, 0.000000000000000000, 1.000000000000000000 ) ) ;
#254 = DIRECTION ( 'NONE',  ( 0.000000000000000000, 0.000000000000000000, 1.000000000000000000 ) ) ;
#255 = PERSON_AND_ORGANIZATION ( #199, #72 ) ;
ENDSEC;
END-ISO-10303-21;
