ISO-10303-21;
HEADER;
FILE_DESCRIPTION (( 'STEP AP203' ),
    '1' );
FILE_NAME ('117b.STEP',
    '2023-02-12T12:45:08',
    ( '' ),
    ( '' ),
    'SwSTEP 2.0',
    'SolidWorks 2019',
    '' );
FILE_SCHEMA (( 'CONFIG_CONTROL_DESIGN' ));
ENDSEC;

DATA;
#1 = EDGE_LOOP ( 'NONE', ( #128, #68, #148, #149 ) ) ;
#2 = APPROVAL_ROLE ( '' ) ;
#3 = VERTEX_POINT ( 'NONE', #203 ) ;
#4 = LINE ( 'NONE', #53, #95 ) ;
#5 = CYLINDRICAL_SURFACE ( 'NONE', #41, 3.000000000000000444 ) ;
#6 = EDGE_CURVE ( 'NONE', #43, #185, #107, .T. ) ;
#7 = CYLINDRICAL_SURFACE ( 'NONE', #251, 1.600000000000000089 ) ;
#8 = CARTESIAN_POINT ( 'NONE',  ( 0.000000000000000000, 0.000000000000000000, 100.0000000000000000 ) ) ;
#9 = DATE_AND_TIME ( #176, #81 ) ;
#10 = APPROVAL_PERSON_ORGANIZATION ( #57, #223, #204 ) ;
#11 = APPLICATION_CONTEXT ( 'configuration controlled 3d designs of mechanical parts and assemblies' ) ;
#12 = DIRECTION ( 'NONE',  ( 1.000000000000000000, 0.000000000000000000, -0.000000000000000000 ) ) ;
#13 = CC_DESIGN_PERSON_AND_ORGANIZATION_ASSIGNMENT ( #54, #234, ( #106 ) ) ;
#14 = DIRECTION ( 'NONE',  ( 0.000000000000000000, 0.000000000000000000, 1.000000000000000000 ) ) ;
#15 = APPROVAL_ROLE ( '' ) ;
#16 = CARTESIAN_POINT ( 'NONE',  ( 0.000000000000000000, 0.000000000000000000, 0.000000000000000000 ) ) ;
#17 = PRODUCT_DEFINITION ( 'NEZNÁMÝ', '', #106, #247 ) ;
#18 = DIRECTION ( 'NONE',  ( 1.000000000000000000, 0.000000000000000000, 0.000000000000000000 ) ) ;
#19 = LOCAL_TIME ( 13, 45, 8.000000000000000000, #26 ) ;
#20 = ORIENTED_EDGE ( 'NONE', *, *, #113, .T. ) ;
#21 = APPLICATION_PROTOCOL_DEFINITION ( 'international standard', 'config_control_design', 1994, #11 ) ;
#22 = FACE_OUTER_BOUND ( 'NONE', #218, .T. ) ;
#23 = LOCAL_TIME ( 13, 45, 8.000000000000000000, #150 ) ;
#24 = DIRECTION ( 'NONE',  ( 1.000000000000000000, 0.000000000000000000, 0.000000000000000000 ) ) ;
#25 = CC_DESIGN_PERSON_AND_ORGANIZATION_ASSIGNMENT ( #190, #123, ( #121 ) ) ;
#26 = COORDINATED_UNIVERSAL_TIME_OFFSET ( 1, 0, .AHEAD. ) ;
#27 = ORIENTED_EDGE ( 'NONE', *, *, #238, .T. ) ;
#28 = CARTESIAN_POINT ( 'NONE',  ( -1.600000000000000089, 0.000000000000000000, 3.000000000000000000 ) ) ;
#29 = AXIS2_PLACEMENT_3D ( 'NONE', #208, #188, #35 ) ;
#30 = CARTESIAN_POINT ( 'NONE',  ( 3.000000000000000444, 3.673940397442060361E-16, 3.000000000000000000 ) ) ;
#31 = CIRCLE ( 'NONE', #91, 1.600000000000000089 ) ;
#32 = DIRECTION ( 'NONE',  ( 0.000000000000000000, 0.000000000000000000, 1.000000000000000000 ) ) ;
#33 = CARTESIAN_POINT ( 'NONE',  ( 0.000000000000000000, 0.000000000000000000, 3.000000000000000000 ) ) ;
#34 = DATE_TIME_ROLE ( 'classification_date' ) ;
#35 = DIRECTION ( 'NONE',  ( 1.000000000000000000, 0.000000000000000000, 0.000000000000000000 ) ) ;
#36 = CC_DESIGN_PERSON_AND_ORGANIZATION_ASSIGNMENT ( #45, #38, ( #106 ) ) ;
#37 = MECHANICAL_CONTEXT ( 'NONE', #179, 'mechanical' ) ;
#38 = PERSON_AND_ORGANIZATION_ROLE ( 'creator' ) ;
#39 = EDGE_CURVE ( 'NONE', #105, #222, #111, .T. ) ;
#40 =( LENGTH_UNIT ( ) NAMED_UNIT ( * ) SI_UNIT ( .MILLI., .METRE. ) );
#41 = AXIS2_PLACEMENT_3D ( 'NONE', #96, #192, #71 ) ;
#42 = APPROVAL ( #147, 'NEURÈENÝ' ) ;
#43 = VERTEX_POINT ( 'NONE', #70 ) ;
#44 = ORIENTED_EDGE ( 'NONE', *, *, #59, .F. ) ;
#45 = PERSON_AND_ORGANIZATION ( #164, #104 ) ;
#46 = CLOSED_SHELL ( 'NONE', ( #197, #118, #65, #50, #85, #217, #142 ) ) ;
#47 = ORIENTED_EDGE ( 'NONE', *, *, #39, .T. ) ;
#48 = COORDINATED_UNIVERSAL_TIME_OFFSET ( 1, 0, .AHEAD. ) ;
#49 = ORIENTED_EDGE ( 'NONE', *, *, #184, .F. ) ;
#50 = ADVANCED_FACE ( 'NONE', ( #199, #22 ), #153, .T. ) ;
#51 = CARTESIAN_POINT ( 'NONE',  ( 3.000000000000000444, 3.673940397442060361E-16, 3.000000000000000000 ) ) ;
#52 = DIRECTION ( 'NONE',  ( -0.000000000000000000, -0.000000000000000000, -1.000000000000000000 ) ) ;
#53 = CARTESIAN_POINT ( 'NONE',  ( 1.600000000000000089, 1.959434878635764737E-16, 100.0000000000000000 ) ) ;
#54 = PERSON_AND_ORGANIZATION ( #164, #104 ) ;
#55 = CARTESIAN_POINT ( 'NONE',  ( 0.000000000000000000, 0.000000000000000000, 3.000000000000000000 ) ) ;
#56 = FACE_OUTER_BOUND ( 'NONE', #88, .T. ) ;
#57 = PERSON_AND_ORGANIZATION ( #164, #104 ) ;
#58 = CIRCLE ( 'NONE', #140, 1.600000000000000089 ) ;
#59 = EDGE_CURVE ( 'NONE', #66, #185, #189, .T. ) ;
#60 = DIRECTION ( 'NONE',  ( 1.000000000000000000, 0.000000000000000000, 0.000000000000000000 ) ) ;
#61 =( NAMED_UNIT ( * ) SI_UNIT ( $, .STERADIAN. ) SOLID_ANGLE_UNIT ( ) );
#62 = CC_DESIGN_PERSON_AND_ORGANIZATION_ASSIGNMENT ( #193, #211, ( #17 ) ) ;
#63 = VECTOR ( 'NONE', #186, 1000.000000000000000 ) ;
#64 = ORIENTED_EDGE ( 'NONE', *, *, #126, .F. ) ;
#65 = ADVANCED_FACE ( 'NONE', ( #93 ), #5, .T. ) ;
#66 = VERTEX_POINT ( 'NONE', #207 ) ;
#67 = CALENDAR_DATE ( 2023, 12, 2 ) ;
#68 = ORIENTED_EDGE ( 'NONE', *, *, #113, .F. ) ;
#69 = CIRCLE ( 'NONE', #146, 3.000000000000000444 ) ;
#70 = CARTESIAN_POINT ( 'NONE',  ( 3.000000000000000444, 3.673940397442060361E-16, 0.000000000000000000 ) ) ;
#71 = DIRECTION ( 'NONE',  ( -1.000000000000000000, 0.000000000000000000, 0.000000000000000000 ) ) ;
#72 = DIRECTION ( 'NONE',  ( 1.000000000000000000, 0.000000000000000000, 0.000000000000000000 ) ) ;
#73 = CARTESIAN_POINT ( 'NONE',  ( 0.000000000000000000, 0.000000000000000000, 3.000000000000000000 ) ) ;
#74 = CARTESIAN_POINT ( 'NONE',  ( 1.600000000000000089, 1.959434878635764737E-16, 100.0000000000000000 ) ) ;
#75 = SECURITY_CLASSIFICATION_LEVEL ( 'unclassified' ) ;
#76 = CARTESIAN_POINT ( 'NONE',  ( 0.000000000000000000, 0.000000000000000000, 100.0000000000000000 ) ) ;
#77 = COORDINATED_UNIVERSAL_TIME_OFFSET ( 1, 0, .AHEAD. ) ;
#78 = PERSON_AND_ORGANIZATION ( #164, #104 ) ;
#79 = DIRECTION ( 'NONE',  ( 1.000000000000000000, 0.000000000000000000, 0.000000000000000000 ) ) ;
#80 = CARTESIAN_POINT ( 'NONE',  ( 0.000000000000000000, 0.000000000000000000, 3.000000000000000000 ) ) ;
#81 = LOCAL_TIME ( 13, 45, 8.000000000000000000, #77 ) ;
#82 = EDGE_CURVE ( 'NONE', #144, #3, #4, .T. ) ;
#83 = EDGE_LOOP ( 'NONE', ( #87, #151 ) ) ;
#84 = ORIENTED_EDGE ( 'NONE', *, *, #39, .F. ) ;
#85 = ADVANCED_FACE ( 'NONE', ( #243 ), #92, .F. ) ;
#86 = VECTOR ( 'NONE', #52, 1000.000000000000000 ) ;
#87 = ORIENTED_EDGE ( 'NONE', *, *, #191, .T. ) ;
#88 = EDGE_LOOP ( 'NONE', ( #255, #182, #47, #183 ) ) ;
#89 = PERSON_AND_ORGANIZATION ( #164, #104 ) ;
#90 = EDGE_LOOP ( 'NONE', ( #64, #131, #134, #84 ) ) ;
#91 = AXIS2_PLACEMENT_3D ( 'NONE', #80, #100, #79 ) ;
#92 = PLANE ( 'NONE',  #215 ) ;
#93 = FACE_OUTER_BOUND ( 'NONE', #1, .T. ) ;
#94 = FACE_OUTER_BOUND ( 'NONE', #254, .T. ) ;
#95 = VECTOR ( 'NONE', #98, 1000.000000000000000 ) ;
#96 = CARTESIAN_POINT ( 'NONE',  ( 0.000000000000000000, 0.000000000000000000, 3.000000000000000000 ) ) ;
#97 = APPROVAL_STATUS ( 'not_yet_approved' ) ;
#98 = DIRECTION ( 'NONE',  ( -0.000000000000000000, -0.000000000000000000, -1.000000000000000000 ) ) ;
#99 = DATE_AND_TIME ( #110, #236 ) ;
#100 = DIRECTION ( 'NONE',  ( 0.000000000000000000, 0.000000000000000000, 1.000000000000000000 ) ) ;
#101 = CIRCLE ( 'NONE', #124, 1.600000000000000089 ) ;
#102 = APPROVAL_PERSON_ORGANIZATION ( #89, #132, #15 ) ;
#103 = PRODUCT ( '117b', '117b', '', ( #37 ) ) ;
#104 = ORGANIZATION ( 'NEURÈENÝ', 'NEURÈENÝ', '' ) ;
#105 = VERTEX_POINT ( 'NONE', #154 ) ;
#106 = PRODUCT_DEFINITION_FORMATION_WITH_SPECIFIED_SOURCE ( 'LIBOVOLNÝ', '', #103, .NOT_KNOWN. ) ;
#107 = CIRCLE ( 'NONE', #245, 3.000000000000000444 ) ;
#108 = CIRCLE ( 'NONE', #210, 3.000000000000000444 ) ;
#109 = ORIENTED_EDGE ( 'NONE', *, *, #228, .F. ) ;
#110 = CALENDAR_DATE ( 2023, 12, 2 ) ;
#111 = LINE ( 'NONE', #239, #221 ) ;
#112 = APPROVAL_DATE_TIME ( #174, #132 ) ;
#113 = EDGE_CURVE ( 'NONE', #66, #220, #115, .T. ) ;
#114 = DIRECTION ( 'NONE',  ( 0.000000000000000000, 0.000000000000000000, 1.000000000000000000 ) ) ;
#115 = CIRCLE ( 'NONE', #250, 3.000000000000000444 ) ;
#116 = CARTESIAN_POINT ( 'NONE',  ( 0.000000000000000000, 0.000000000000000000, 100.0000000000000000 ) ) ;
#117 = DIRECTION ( 'NONE',  ( -0.000000000000000000, -0.000000000000000000, -1.000000000000000000 ) ) ;
#118 = ADVANCED_FACE ( 'NONE', ( #94 ), #159, .T. ) ;
#119 = DIRECTION ( 'NONE',  ( 1.000000000000000000, 0.000000000000000000, 0.000000000000000000 ) ) ;
#120 = CALENDAR_DATE ( 2023, 12, 2 ) ;
#121 = SECURITY_CLASSIFICATION ( '', '', #75 ) ;
#122 = CARTESIAN_POINT ( 'NONE',  ( 0.000000000000000000, 0.000000000000000000, 3.000000000000000000 ) ) ;
#123 = PERSON_AND_ORGANIZATION_ROLE ( 'classification_officer' ) ;
#124 = AXIS2_PLACEMENT_3D ( 'NONE', #33, #137, #187 ) ;
#125 = AXIS2_PLACEMENT_3D ( 'NONE', #16, #14, #60 ) ;
#126 = EDGE_CURVE ( 'NONE', #144, #105, #145, .T. ) ;
#127 = EDGE_LOOP ( 'NONE', ( #49, #216 ) ) ;
#128 = ORIENTED_EDGE ( 'NONE', *, *, #178, .F. ) ;
#129 = CARTESIAN_POINT ( 'NONE',  ( 0.000000000000000000, 0.000000000000000000, 0.000000000000000000 ) ) ;
#130 = CC_DESIGN_APPROVAL ( #42, ( #17 ) ) ;
#131 = ORIENTED_EDGE ( 'NONE', *, *, #82, .T. ) ;
#132 = APPROVAL ( #97, 'NEURÈENÝ' ) ;
#133 = CALENDAR_DATE ( 2023, 12, 2 ) ;
#134 = ORIENTED_EDGE ( 'NONE', *, *, #253, .T. ) ;
#135 = CARTESIAN_POINT ( 'NONE',  ( 0.000000000000000000, 0.000000000000000000, 0.000000000000000000 ) ) ;
#136 = ADVANCED_BREP_SHAPE_REPRESENTATION ( '117b', ( #252, #125 ), #244 ) ;
#137 = DIRECTION ( 'NONE',  ( 0.000000000000000000, 0.000000000000000000, 1.000000000000000000 ) ) ;
#138 = DIRECTION ( 'NONE',  ( -0.000000000000000000, -0.000000000000000000, -1.000000000000000000 ) ) ;
#139 = DIRECTION ( 'NONE',  ( 1.000000000000000000, 0.000000000000000000, 0.000000000000000000 ) ) ;
#140 = AXIS2_PLACEMENT_3D ( 'NONE', #76, #226, #119 ) ;
#141 = APPROVAL_STATUS ( 'not_yet_approved' ) ;
#142 = ADVANCED_FACE ( 'NONE', ( #173 ), #233, .T. ) ;
#143 = DIRECTION ( 'NONE',  ( 0.000000000000000000, 0.000000000000000000, 1.000000000000000000 ) ) ;
#144 = VERTEX_POINT ( 'NONE', #74 ) ;
#145 = CIRCLE ( 'NONE', #29, 1.600000000000000089 ) ;
#146 = AXIS2_PLACEMENT_3D ( 'NONE', #73, #143, #18 ) ;
#147 = APPROVAL_STATUS ( 'not_yet_approved' ) ;
#148 = ORIENTED_EDGE ( 'NONE', *, *, #59, .T. ) ;
#149 = ORIENTED_EDGE ( 'NONE', *, *, #228, .T. ) ;
#150 = COORDINATED_UNIVERSAL_TIME_OFFSET ( 1, 0, .AHEAD. ) ;
#151 = ORIENTED_EDGE ( 'NONE', *, *, #126, .T. ) ;
#152 = APPROVAL_PERSON_ORGANIZATION ( #167, #42, #2 ) ;
#153 = PLANE ( 'NONE',  #235 ) ;
#154 = CARTESIAN_POINT ( 'NONE',  ( -1.600000000000000089, 0.000000000000000000, 100.0000000000000000 ) ) ;
#155 = CC_DESIGN_DATE_AND_TIME_ASSIGNMENT ( #99, #34, ( #121 ) ) ;
#156 = DIRECTION ( 'NONE',  ( -1.000000000000000000, 0.000000000000000000, 0.000000000000000000 ) ) ;
#157 = DIRECTION ( 'NONE',  ( -0.000000000000000000, -0.000000000000000000, -1.000000000000000000 ) ) ;
#158 = DATE_AND_TIME ( #133, #202 ) ;
#159 = CYLINDRICAL_SURFACE ( 'NONE', #227, 3.000000000000000444 ) ;
#160 = UNCERTAINTY_MEASURE_WITH_UNIT (LENGTH_MEASURE( 1.000000000000000082E-05 ), #40, 'distance_accuracy_value', 'NONE');
#161 = CYLINDRICAL_SURFACE ( 'NONE', #180, 1.600000000000000089 ) ;
#162 = CC_DESIGN_DATE_AND_TIME_ASSIGNMENT ( #9, #230, ( #17 ) ) ;
#163 = PERSON_AND_ORGANIZATION_ROLE ( 'design_owner' ) ;
#164 = PERSON ( 'NEURÈENÝ', 'NEURÈENÝ', 'NEURÈENÝ', ('NEURÈENÝ'), ('NEURÈENÝ'), ('NEURÈENÝ') ) ;
#165 = PRODUCT_RELATED_PRODUCT_CATEGORY ( 'detail', '', ( #103 ) ) ;
#166 = CC_DESIGN_SECURITY_CLASSIFICATION ( #121, ( #106 ) ) ;
#167 = PERSON_AND_ORGANIZATION ( #164, #104 ) ;
#168 = ORIENTED_EDGE ( 'NONE', *, *, #178, .T. ) ;
#169 = DIRECTION ( 'NONE',  ( -0.000000000000000000, -0.000000000000000000, -1.000000000000000000 ) ) ;
#170 = DIRECTION ( 'NONE',  ( 1.000000000000000000, 0.000000000000000000, -0.000000000000000000 ) ) ;
#171 = FACE_OUTER_BOUND ( 'NONE', #90, .T. ) ;
#172 = DIRECTION ( 'NONE',  ( 0.000000000000000000, 0.000000000000000000, 1.000000000000000000 ) ) ;
#173 = FACE_OUTER_BOUND ( 'NONE', #83, .T. ) ;
#174 = DATE_AND_TIME ( #67, #19 ) ;
#175 = CARTESIAN_POINT ( 'NONE',  ( 0.000000000000000000, 0.000000000000000000, 0.000000000000000000 ) ) ;
#176 = CALENDAR_DATE ( 2023, 12, 2 ) ;
#177 = AXIS2_PLACEMENT_3D ( 'NONE', #116, #241, #12 ) ;
#178 = EDGE_CURVE ( 'NONE', #220, #43, #248, .T. ) ;
#179 = APPLICATION_CONTEXT ( 'configuration controlled 3d designs of mechanical parts and assemblies' ) ;
#180 = AXIS2_PLACEMENT_3D ( 'NONE', #8, #117, #224 ) ;
#181 = ORIENTED_EDGE ( 'NONE', *, *, #6, .F. ) ;
#182 = ORIENTED_EDGE ( 'NONE', *, *, #191, .F. ) ;
#183 = ORIENTED_EDGE ( 'NONE', *, *, #184, .T. ) ;
#184 = EDGE_CURVE ( 'NONE', #222, #3, #101, .T. ) ;
#185 = VERTEX_POINT ( 'NONE', #231 ) ;
#186 = DIRECTION ( 'NONE',  ( -0.000000000000000000, -0.000000000000000000, -1.000000000000000000 ) ) ;
#187 = DIRECTION ( 'NONE',  ( 1.000000000000000000, 0.000000000000000000, 0.000000000000000000 ) ) ;
#188 = DIRECTION ( 'NONE',  ( 0.000000000000000000, 0.000000000000000000, 1.000000000000000000 ) ) ;
#189 = LINE ( 'NONE', #229, #86 ) ;
#190 = PERSON_AND_ORGANIZATION ( #164, #104 ) ;
#191 = EDGE_CURVE ( 'NONE', #105, #144, #58, .T. ) ;
#192 = DIRECTION ( 'NONE',  ( -0.000000000000000000, -0.000000000000000000, -1.000000000000000000 ) ) ;
#193 = PERSON_AND_ORGANIZATION ( #164, #104 ) ;
#194 = DATE_AND_TIME ( #120, #23 ) ;
#195 = CC_DESIGN_PERSON_AND_ORGANIZATION_ASSIGNMENT ( #78, #163, ( #103 ) ) ;
#196 = PRODUCT_DEFINITION_SHAPE ( 'NONE', 'NONE',  #17 ) ;
#197 = ADVANCED_FACE ( 'NONE', ( #171 ), #161, .T. ) ;
#198 = CC_DESIGN_APPROVAL ( #132, ( #106 ) ) ;
#199 = FACE_BOUND ( 'NONE', #127, .T. ) ;
#200 = ORIENTED_EDGE ( 'NONE', *, *, #6, .T. ) ;
#201 = DIRECTION ( 'NONE',  ( 0.000000000000000000, 0.000000000000000000, 1.000000000000000000 ) ) ;
#202 = LOCAL_TIME ( 13, 45, 8.000000000000000000, #225 ) ;
#203 = CARTESIAN_POINT ( 'NONE',  ( 1.600000000000000089, 1.959434878635764737E-16, 3.000000000000000000 ) ) ;
#204 = APPROVAL_ROLE ( '' ) ;
#205 = DIRECTION ( 'NONE',  ( -1.000000000000000000, 0.000000000000000000, 0.000000000000000000 ) ) ;
#206 = CARTESIAN_POINT ( 'NONE',  ( 0.000000000000000000, 0.000000000000000000, 3.000000000000000000 ) ) ;
#207 = CARTESIAN_POINT ( 'NONE',  ( -3.000000000000000444, 0.000000000000000000, 3.000000000000000000 ) ) ;
#208 = CARTESIAN_POINT ( 'NONE',  ( 0.000000000000000000, 0.000000000000000000, 100.0000000000000000 ) ) ;
#209 = DIRECTION ( 'NONE',  ( 0.000000000000000000, 0.000000000000000000, 1.000000000000000000 ) ) ;
#210 = AXIS2_PLACEMENT_3D ( 'NONE', #135, #114, #72 ) ;
#211 = PERSON_AND_ORGANIZATION_ROLE ( 'creator' ) ;
#212 =( NAMED_UNIT ( * ) PLANE_ANGLE_UNIT ( ) SI_UNIT ( $, .RADIAN. ) );
#213 = CC_DESIGN_APPROVAL ( #223, ( #121 ) ) ;
#214 = APPLICATION_PROTOCOL_DEFINITION ( 'international standard', 'config_control_design', 1994, #179 ) ;
#215 = AXIS2_PLACEMENT_3D ( 'NONE', #175, #209, #246 ) ;
#216 = ORIENTED_EDGE ( 'NONE', *, *, #253, .F. ) ;
#217 = ADVANCED_FACE ( 'NONE', ( #56 ), #7, .T. ) ;
#218 = EDGE_LOOP ( 'NONE', ( #20, #27 ) ) ;
#219 = APPROVAL_DATE_TIME ( #194, #223 ) ;
#220 = VERTEX_POINT ( 'NONE', #51 ) ;
#221 = VECTOR ( 'NONE', #169, 1000.000000000000000 ) ;
#222 = VERTEX_POINT ( 'NONE', #28 ) ;
#223 = APPROVAL ( #141, 'NEURÈENÝ' ) ;
#224 = DIRECTION ( 'NONE',  ( -1.000000000000000000, 0.000000000000000000, 0.000000000000000000 ) ) ;
#225 = COORDINATED_UNIVERSAL_TIME_OFFSET ( 1, 0, .AHEAD. ) ;
#226 = DIRECTION ( 'NONE',  ( 0.000000000000000000, 0.000000000000000000, 1.000000000000000000 ) ) ;
#227 = AXIS2_PLACEMENT_3D ( 'NONE', #206, #138, #156 ) ;
#228 = EDGE_CURVE ( 'NONE', #185, #43, #108, .T. ) ;
#229 = CARTESIAN_POINT ( 'NONE',  ( -3.000000000000000444, 0.000000000000000000, 3.000000000000000000 ) ) ;
#230 = DATE_TIME_ROLE ( 'creation_date' ) ;
#231 = CARTESIAN_POINT ( 'NONE',  ( -3.000000000000000444, 0.000000000000000000, 0.000000000000000000 ) ) ;
#232 = SHAPE_DEFINITION_REPRESENTATION ( #196, #136 ) ;
#233 = PLANE ( 'NONE',  #177 ) ;
#234 = PERSON_AND_ORGANIZATION_ROLE ( 'design_supplier' ) ;
#235 = AXIS2_PLACEMENT_3D ( 'NONE', #55, #172, #170 ) ;
#236 = LOCAL_TIME ( 13, 45, 8.000000000000000000, #48 ) ;
#237 = ORIENTED_EDGE ( 'NONE', *, *, #238, .F. ) ;
#238 = EDGE_CURVE ( 'NONE', #220, #66, #69, .T. ) ;
#239 = CARTESIAN_POINT ( 'NONE',  ( -1.600000000000000089, 0.000000000000000000, 100.0000000000000000 ) ) ;
#240 = EDGE_LOOP ( 'NONE', ( #109, #181 ) ) ;
#241 = DIRECTION ( 'NONE',  ( 0.000000000000000000, 0.000000000000000000, 1.000000000000000000 ) ) ;
#242 = CARTESIAN_POINT ( 'NONE',  ( 0.000000000000000000, 0.000000000000000000, 100.0000000000000000 ) ) ;
#243 = FACE_OUTER_BOUND ( 'NONE', #240, .T. ) ;
#244 =( GEOMETRIC_REPRESENTATION_CONTEXT ( 3 ) GLOBAL_UNCERTAINTY_ASSIGNED_CONTEXT ( ( #160 ) ) GLOBAL_UNIT_ASSIGNED_CONTEXT ( ( #40, #212, #61 ) ) REPRESENTATION_CONTEXT ( 'NONE', 'WORKASPACE' ) );
#245 = AXIS2_PLACEMENT_3D ( 'NONE', #129, #201, #24 ) ;
#246 = DIRECTION ( 'NONE',  ( 1.000000000000000000, 0.000000000000000000, -0.000000000000000000 ) ) ;
#247 = DESIGN_CONTEXT ( 'detailed design', #11, 'design' ) ;
#248 = LINE ( 'NONE', #30, #63 ) ;
#249 = APPROVAL_DATE_TIME ( #158, #42 ) ;
#250 = AXIS2_PLACEMENT_3D ( 'NONE', #122, #32, #139 ) ;
#251 = AXIS2_PLACEMENT_3D ( 'NONE', #242, #157, #205 ) ;
#252 = MANIFOLD_SOLID_BREP ( 'Pøidat vysunutím3', #46 ) ;
#253 = EDGE_CURVE ( 'NONE', #3, #222, #31, .T. ) ;
#254 = EDGE_LOOP ( 'NONE', ( #237, #168, #200, #44 ) ) ;
#255 = ORIENTED_EDGE ( 'NONE', *, *, #82, .F. ) ;
ENDSEC;
END-ISO-10303-21;
