ISO-10303-21;
HEADER;
FILE_DESCRIPTION (( 'STEP AP203' ),
    '1' );
FILE_NAME ('4206.STEP',
    '2023-02-12T11:17:08',
    ( '' ),
    ( '' ),
    'SwSTEP 2.0',
    'SolidWorks 2019',
    '' );
FILE_SCHEMA (( 'CONFIG_CONTROL_DESIGN' ));
ENDSEC;

DATA;
#1 = EDGE_CURVE ( 'NONE', #105, #23, #184, .T. ) ;
#2 = EDGE_LOOP ( 'NONE', ( #161, #221, #144, #182 ) ) ;
#3 = CARTESIAN_POINT ( 'NONE',  ( 0.000000000000000000, 0.000000000000000000, 0.000000000000000000 ) ) ;
#4 = DIRECTION ( 'NONE',  ( -0.000000000000000000, -0.000000000000000000, -1.000000000000000000 ) ) ;
#5 = CARTESIAN_POINT ( 'NONE',  ( 0.000000000000000000, 0.000000000000000000, 0.000000000000000000 ) ) ;
#6 = PLANE ( 'NONE',  #216 ) ;
#7 = LINE ( 'NONE', #128, #137 ) ;
#8 = CARTESIAN_POINT ( 'NONE',  ( 0.000000000000000000, 0.000000000000000000, 5.000000000000000000 ) ) ;
#9 = ADVANCED_FACE ( 'NONE', ( #183 ), #205, .F. ) ;
#10 = AXIS2_PLACEMENT_3D ( 'NONE', #131, #125, #190 ) ;
#11 = APPROVAL_DATE_TIME ( #234, #24 ) ;
#12 = EDGE_LOOP ( 'NONE', ( #135, #179 ) ) ;
#13 = CALENDAR_DATE ( 2023, 12, 2 ) ;
#14 = ORIENTED_EDGE ( 'NONE', *, *, #196, .F. ) ;
#15 = APPROVAL ( #198, 'NEURÈENÝ' ) ;
#16 = PERSON_AND_ORGANIZATION ( #17, #158 ) ;
#17 = PERSON ( 'NEURÈENÝ', 'NEURÈENÝ', 'NEURÈENÝ', ('NEURÈENÝ'), ('NEURÈENÝ'), ('NEURÈENÝ') ) ;
#18 = APPROVAL_STATUS ( 'not_yet_approved' ) ;
#19 = EDGE_LOOP ( 'NONE', ( #240, #164 ) ) ;
#20 = CARTESIAN_POINT ( 'NONE',  ( 0.000000000000000000, 0.000000000000000000, 125.0000000000000000 ) ) ;
#21 = ORIENTED_EDGE ( 'NONE', *, *, #108, .T. ) ;
#22 = CIRCLE ( 'NONE', #141, 8.000000000000000000 ) ;
#23 = VERTEX_POINT ( 'NONE', #41 ) ;
#24 = APPROVAL ( #39, 'NEURÈENÝ' ) ;
#25 = DIRECTION ( 'NONE',  ( -1.000000000000000000, 0.000000000000000000, 0.000000000000000000 ) ) ;
#26 = CARTESIAN_POINT ( 'NONE',  ( 0.000000000000000000, 0.000000000000000000, 125.0000000000000000 ) ) ;
#27 =( NAMED_UNIT ( * ) PLANE_ANGLE_UNIT ( ) SI_UNIT ( $, .RADIAN. ) );
#28 = CIRCLE ( 'NONE', #181, 8.000000000000000000 ) ;
#29 = CARTESIAN_POINT ( 'NONE',  ( 5.250000000000000888, 6.429395695523605139E-16, 125.0000000000000000 ) ) ;
#30 = DIRECTION ( 'NONE',  ( 1.000000000000000000, 0.000000000000000000, 0.000000000000000000 ) ) ;
#31 = CIRCLE ( 'NONE', #246, 5.250000000000000888 ) ;
#32 = ADVANCED_FACE ( 'NONE', ( #163 ), #241, .T. ) ;
#33 = ORIENTED_EDGE ( 'NONE', *, *, #66, .F. ) ;
#34 =( GEOMETRIC_REPRESENTATION_CONTEXT ( 3 ) GLOBAL_UNCERTAINTY_ASSIGNED_CONTEXT ( ( #214 ) ) GLOBAL_UNIT_ASSIGNED_CONTEXT ( ( #174, #27, #193 ) ) REPRESENTATION_CONTEXT ( 'NONE', 'WORKASPACE' ) );
#35 = EDGE_CURVE ( 'NONE', #118, #218, #28, .T. ) ;
#36 = PERSON_AND_ORGANIZATION_ROLE ( 'design_supplier' ) ;
#37 = CIRCLE ( 'NONE', #115, 5.250000000000000888 ) ;
#38 = APPROVAL_ROLE ( '' ) ;
#39 = APPROVAL_STATUS ( 'not_yet_approved' ) ;
#40 = VERTEX_POINT ( 'NONE', #45 ) ;
#41 = CARTESIAN_POINT ( 'NONE',  ( -5.250000000000000888, 0.000000000000000000, 5.000000000000000000 ) ) ;
#42 = CARTESIAN_POINT ( 'NONE',  ( 0.000000000000000000, 0.000000000000000000, 125.0000000000000000 ) ) ;
#43 = EDGE_LOOP ( 'NONE', ( #186, #200 ) ) ;
#44 = LOCAL_TIME ( 12, 17, 8.000000000000000000, #139 ) ;
#45 = CARTESIAN_POINT ( 'NONE',  ( 5.250000000000000888, 6.429395695523605139E-16, 5.000000000000000000 ) ) ;
#46 = DIRECTION ( 'NONE',  ( 1.000000000000000000, 0.000000000000000000, 0.000000000000000000 ) ) ;
#47 = CARTESIAN_POINT ( 'NONE',  ( -5.250000000000000888, 0.000000000000000000, 125.0000000000000000 ) ) ;
#48 = ADVANCED_FACE ( 'NONE', ( #122 ), #145, .T. ) ;
#49 = APPLICATION_CONTEXT ( 'configuration controlled 3d designs of mechanical parts and assemblies' ) ;
#50 = LOCAL_TIME ( 12, 17, 8.000000000000000000, #178 ) ;
#51 = DIRECTION ( 'NONE',  ( -0.000000000000000000, -0.000000000000000000, -1.000000000000000000 ) ) ;
#52 = LINE ( 'NONE', #29, #82 ) ;
#53 = DIRECTION ( 'NONE',  ( -0.000000000000000000, -0.000000000000000000, -1.000000000000000000 ) ) ;
#54 = LOCAL_TIME ( 12, 17, 8.000000000000000000, #117 ) ;
#55 = DIRECTION ( 'NONE',  ( -1.000000000000000000, 0.000000000000000000, 0.000000000000000000 ) ) ;
#56 = APPROVAL_ROLE ( '' ) ;
#57 = SECURITY_CLASSIFICATION_LEVEL ( 'unclassified' ) ;
#58 = AXIS2_PLACEMENT_3D ( 'NONE', #180, #199, #60 ) ;
#59 = PERSON_AND_ORGANIZATION_ROLE ( 'creator' ) ;
#60 = DIRECTION ( 'NONE',  ( 1.000000000000000000, 0.000000000000000000, 0.000000000000000000 ) ) ;
#61 = CC_DESIGN_PERSON_AND_ORGANIZATION_ASSIGNMENT ( #16, #59, ( #235 ) ) ;
#62 = DIRECTION ( 'NONE',  ( 1.000000000000000000, 0.000000000000000000, 0.000000000000000000 ) ) ;
#63 = DIRECTION ( 'NONE',  ( 1.000000000000000000, 0.000000000000000000, 0.000000000000000000 ) ) ;
#64 = CIRCLE ( 'NONE', #89, 5.250000000000000888 ) ;
#65 = ORIENTED_EDGE ( 'NONE', *, *, #156, .F. ) ;
#66 = EDGE_CURVE ( 'NONE', #105, #113, #64, .T. ) ;
#67 = DIRECTION ( 'NONE',  ( 0.000000000000000000, 0.000000000000000000, 1.000000000000000000 ) ) ;
#68 = CC_DESIGN_APPROVAL ( #24, ( #202 ) ) ;
#69 = EDGE_LOOP ( 'NONE', ( #223, #33, #101, #83 ) ) ;
#70 = EDGE_CURVE ( 'NONE', #23, #40, #37, .T. ) ;
#71 = CARTESIAN_POINT ( 'NONE',  ( -8.000000000000000000, 0.000000000000000000, 5.000000000000000000 ) ) ;
#72 = CARTESIAN_POINT ( 'NONE',  ( -8.000000000000000000, 0.000000000000000000, 0.000000000000000000 ) ) ;
#73 = DIRECTION ( 'NONE',  ( 0.000000000000000000, 0.000000000000000000, 1.000000000000000000 ) ) ;
#74 = AXIS2_PLACEMENT_3D ( 'NONE', #20, #188, #154 ) ;
#75 = CC_DESIGN_DATE_AND_TIME_ASSIGNMENT ( #237, #136, ( #195 ) ) ;
#76 = PRODUCT ( '4206', '4206', '', ( #232 ) ) ;
#77 = CC_DESIGN_PERSON_AND_ORGANIZATION_ASSIGNMENT ( #114, #254, ( #195 ) ) ;
#78 = PERSON_AND_ORGANIZATION ( #17, #158 ) ;
#79 = CALENDAR_DATE ( 2023, 12, 2 ) ;
#80 = PERSON_AND_ORGANIZATION_ROLE ( 'creator' ) ;
#81 = APPROVAL_DATE_TIME ( #255, #191 ) ;
#82 = VECTOR ( 'NONE', #53, 1000.000000000000000 ) ;
#83 = ORIENTED_EDGE ( 'NONE', *, *, #70, .T. ) ;
#84 = EDGE_CURVE ( 'NONE', #99, #160, #94, .T. ) ;
#85 = AXIS2_PLACEMENT_3D ( 'NONE', #3, #201, #150 ) ;
#86 = ORIENTED_EDGE ( 'NONE', *, *, #35, .T. ) ;
#87 = DIRECTION ( 'NONE',  ( 0.000000000000000000, 0.000000000000000000, 1.000000000000000000 ) ) ;
#88 = DIRECTION ( 'NONE',  ( 0.000000000000000000, 0.000000000000000000, 1.000000000000000000 ) ) ;
#89 = AXIS2_PLACEMENT_3D ( 'NONE', #26, #87, #168 ) ;
#90 = CARTESIAN_POINT ( 'NONE',  ( 0.000000000000000000, 0.000000000000000000, 125.0000000000000000 ) ) ;
#91 = CARTESIAN_POINT ( 'NONE',  ( 0.000000000000000000, 0.000000000000000000, 5.000000000000000000 ) ) ;
#92 = DATE_AND_TIME ( #13, #44 ) ;
#93 = PERSON_AND_ORGANIZATION ( #17, #158 ) ;
#94 = CIRCLE ( 'NONE', #229, 8.000000000000000000 ) ;
#95 = EDGE_LOOP ( 'NONE', ( #14, #104, #176, #124 ) ) ;
#96 = APPROVAL_PERSON_ORGANIZATION ( #78, #15, #56 ) ;
#97 = CALENDAR_DATE ( 2023, 12, 2 ) ;
#98 = EDGE_CURVE ( 'NONE', #113, #105, #103, .T. ) ;
#99 = VERTEX_POINT ( 'NONE', #72 ) ;
#100 = ADVANCED_FACE ( 'NONE', ( #226, #133 ), #6, .T. ) ;
#101 = ORIENTED_EDGE ( 'NONE', *, *, #1, .T. ) ;
#102 = CARTESIAN_POINT ( 'NONE',  ( -5.250000000000000888, 0.000000000000000000, 125.0000000000000000 ) ) ;
#103 = CIRCLE ( 'NONE', #74, 5.250000000000000888 ) ;
#104 = ORIENTED_EDGE ( 'NONE', *, *, #108, .F. ) ;
#105 = VERTEX_POINT ( 'NONE', #47 ) ;
#106 = CYLINDRICAL_SURFACE ( 'NONE', #185, 8.000000000000000000 ) ;
#107 = CARTESIAN_POINT ( 'NONE',  ( 8.000000000000000000, 9.797174393178825657E-16, 5.000000000000000000 ) ) ;
#108 = EDGE_CURVE ( 'NONE', #218, #118, #250, .T. ) ;
#109 = CYLINDRICAL_SURFACE ( 'NONE', #10, 8.000000000000000000 ) ;
#110 = FACE_OUTER_BOUND ( 'NONE', #120, .T. ) ;
#111 = CARTESIAN_POINT ( 'NONE',  ( 8.000000000000000000, 9.797174393178825657E-16, 0.000000000000000000 ) ) ;
#112 = APPLICATION_PROTOCOL_DEFINITION ( 'international standard', 'config_control_design', 1994, #166 ) ;
#113 = VERTEX_POINT ( 'NONE', #151 ) ;
#114 = PERSON_AND_ORGANIZATION ( #17, #158 ) ;
#115 = AXIS2_PLACEMENT_3D ( 'NONE', #242, #224, #46 ) ;
#116 = ADVANCED_FACE ( 'NONE', ( #227 ), #106, .T. ) ;
#117 = COORDINATED_UNIVERSAL_TIME_OFFSET ( 1, 0, .AHEAD. ) ;
#118 = VERTEX_POINT ( 'NONE', #107 ) ;
#119 = CC_DESIGN_DATE_AND_TIME_ASSIGNMENT ( #175, #251, ( #202 ) ) ;
#120 = EDGE_LOOP ( 'NONE', ( #121, #147, #203, #65 ) ) ;
#121 = ORIENTED_EDGE ( 'NONE', *, *, #35, .F. ) ;
#122 = FACE_OUTER_BOUND ( 'NONE', #2, .T. ) ;
#123 = EDGE_CURVE ( 'NONE', #113, #40, #52, .T. ) ;
#124 = ORIENTED_EDGE ( 'NONE', *, *, #84, .T. ) ;
#125 = DIRECTION ( 'NONE',  ( -0.000000000000000000, -0.000000000000000000, -1.000000000000000000 ) ) ;
#126 = APPROVAL_PERSON_ORGANIZATION ( #157, #24, #194 ) ;
#127 = CC_DESIGN_SECURITY_CLASSIFICATION ( #195, ( #235 ) ) ;
#128 = CARTESIAN_POINT ( 'NONE',  ( -8.000000000000000000, 0.000000000000000000, 5.000000000000000000 ) ) ;
#129 = ADVANCED_FACE ( 'NONE', ( #247 ), #155, .T. ) ;
#130 = CARTESIAN_POINT ( 'NONE',  ( 8.000000000000000000, 9.797174393178825657E-16, 5.000000000000000000 ) ) ;
#131 = CARTESIAN_POINT ( 'NONE',  ( 0.000000000000000000, 0.000000000000000000, 5.000000000000000000 ) ) ;
#132 = VECTOR ( 'NONE', #172, 1000.000000000000000 ) ;
#133 = FACE_OUTER_BOUND ( 'NONE', #149, .T. ) ;
#134 = COORDINATED_UNIVERSAL_TIME_OFFSET ( 1, 0, .AHEAD. ) ;
#135 = ORIENTED_EDGE ( 'NONE', *, *, #66, .T. ) ;
#136 = DATE_TIME_ROLE ( 'classification_date' ) ;
#137 = VECTOR ( 'NONE', #51, 1000.000000000000000 ) ;
#138 = PERSON_AND_ORGANIZATION ( #17, #158 ) ;
#139 = COORDINATED_UNIVERSAL_TIME_OFFSET ( 1, 0, .AHEAD. ) ;
#140 = AXIS2_PLACEMENT_3D ( 'NONE', #169, #207, #231 ) ;
#141 = AXIS2_PLACEMENT_3D ( 'NONE', #249, #206, #209 ) ;
#142 = ADVANCED_BREP_SHAPE_REPRESENTATION ( '4206', ( #146, #58 ), #34 ) ;
#143 = EDGE_CURVE ( 'NONE', #40, #23, #31, .T. ) ;
#144 = ORIENTED_EDGE ( 'NONE', *, *, #143, .T. ) ;
#145 = CYLINDRICAL_SURFACE ( 'NONE', #177, 5.250000000000000888 ) ;
#146 = MANIFOLD_SOLID_BREP ( 'Pøidat vysunutím3', #192 ) ;
#147 = ORIENTED_EDGE ( 'NONE', *, *, #196, .T. ) ;
#148 = AXIS2_PLACEMENT_3D ( 'NONE', #90, #211, #244 ) ;
#149 = EDGE_LOOP ( 'NONE', ( #21, #86 ) ) ;
#150 = DIRECTION ( 'NONE',  ( 1.000000000000000000, 0.000000000000000000, -0.000000000000000000 ) ) ;
#151 = CARTESIAN_POINT ( 'NONE',  ( 5.250000000000000888, 6.429395695523605139E-16, 125.0000000000000000 ) ) ;
#152 = DIRECTION ( 'NONE',  ( 1.000000000000000000, 0.000000000000000000, -0.000000000000000000 ) ) ;
#153 = CARTESIAN_POINT ( 'NONE',  ( 0.000000000000000000, 0.000000000000000000, 5.000000000000000000 ) ) ;
#154 = DIRECTION ( 'NONE',  ( 1.000000000000000000, 0.000000000000000000, 0.000000000000000000 ) ) ;
#155 = CYLINDRICAL_SURFACE ( 'NONE', #148, 5.250000000000000888 ) ;
#156 = EDGE_CURVE ( 'NONE', #218, #99, #7, .T. ) ;
#157 = PERSON_AND_ORGANIZATION ( #17, #158 ) ;
#158 = ORGANIZATION ( 'NEURÈENÝ', 'NEURÈENÝ', '' ) ;
#159 = CALENDAR_DATE ( 2023, 12, 2 ) ;
#160 = VERTEX_POINT ( 'NONE', #111 ) ;
#161 = ORIENTED_EDGE ( 'NONE', *, *, #98, .F. ) ;
#162 = LOCAL_TIME ( 12, 17, 8.000000000000000000, #233 ) ;
#163 = FACE_OUTER_BOUND ( 'NONE', #12, .T. ) ;
#164 = ORIENTED_EDGE ( 'NONE', *, *, #143, .F. ) ;
#165 = DIRECTION ( 'NONE',  ( 0.000000000000000000, 0.000000000000000000, 1.000000000000000000 ) ) ;
#166 = APPLICATION_CONTEXT ( 'configuration controlled 3d designs of mechanical parts and assemblies' ) ;
#167 = APPROVAL_PERSON_ORGANIZATION ( #217, #191, #38 ) ;
#168 = DIRECTION ( 'NONE',  ( 1.000000000000000000, 0.000000000000000000, 0.000000000000000000 ) ) ;
#169 = CARTESIAN_POINT ( 'NONE',  ( 0.000000000000000000, 0.000000000000000000, 5.000000000000000000 ) ) ;
#170 = AXIS2_PLACEMENT_3D ( 'NONE', #42, #165, #239 ) ;
#171 = CC_DESIGN_PERSON_AND_ORGANIZATION_ASSIGNMENT ( #93, #80, ( #202 ) ) ;
#172 = DIRECTION ( 'NONE',  ( -0.000000000000000000, -0.000000000000000000, -1.000000000000000000 ) ) ;
#173 = LINE ( 'NONE', #130, #132 ) ;
#174 =( LENGTH_UNIT ( ) NAMED_UNIT ( * ) SI_UNIT ( .MILLI., .METRE. ) );
#175 = DATE_AND_TIME ( #215, #50 ) ;
#176 = ORIENTED_EDGE ( 'NONE', *, *, #156, .T. ) ;
#177 = AXIS2_PLACEMENT_3D ( 'NONE', #220, #204, #25 ) ;
#178 = COORDINATED_UNIVERSAL_TIME_OFFSET ( 1, 0, .AHEAD. ) ;
#179 = ORIENTED_EDGE ( 'NONE', *, *, #98, .T. ) ;
#180 = CARTESIAN_POINT ( 'NONE',  ( 0.000000000000000000, 0.000000000000000000, 0.000000000000000000 ) ) ;
#181 = AXIS2_PLACEMENT_3D ( 'NONE', #238, #67, #63 ) ;
#182 = ORIENTED_EDGE ( 'NONE', *, *, #1, .F. ) ;
#183 = FACE_OUTER_BOUND ( 'NONE', #43, .T. ) ;
#184 = LINE ( 'NONE', #102, #219 ) ;
#185 = AXIS2_PLACEMENT_3D ( 'NONE', #153, #228, #55 ) ;
#186 = ORIENTED_EDGE ( 'NONE', *, *, #84, .F. ) ;
#187 = DIRECTION ( 'NONE',  ( 0.000000000000000000, 0.000000000000000000, 1.000000000000000000 ) ) ;
#188 = DIRECTION ( 'NONE',  ( 0.000000000000000000, 0.000000000000000000, 1.000000000000000000 ) ) ;
#189 = CC_DESIGN_APPROVAL ( #15, ( #235 ) ) ;
#190 = DIRECTION ( 'NONE',  ( -1.000000000000000000, 0.000000000000000000, 0.000000000000000000 ) ) ;
#191 = APPROVAL ( #18, 'NEURÈENÝ' ) ;
#192 = CLOSED_SHELL ( 'NONE', ( #48, #213, #116, #100, #9, #129, #32 ) ) ;
#193 =( NAMED_UNIT ( * ) SI_UNIT ( $, .STERADIAN. ) SOLID_ANGLE_UNIT ( ) );
#194 = APPROVAL_ROLE ( '' ) ;
#195 = SECURITY_CLASSIFICATION ( '', '', #57 ) ;
#196 = EDGE_CURVE ( 'NONE', #118, #160, #173, .T. ) ;
#197 = PERSON_AND_ORGANIZATION ( #17, #158 ) ;
#198 = APPROVAL_STATUS ( 'not_yet_approved' ) ;
#199 = DIRECTION ( 'NONE',  ( 0.000000000000000000, 0.000000000000000000, 1.000000000000000000 ) ) ;
#200 = ORIENTED_EDGE ( 'NONE', *, *, #248, .F. ) ;
#201 = DIRECTION ( 'NONE',  ( 0.000000000000000000, 0.000000000000000000, 1.000000000000000000 ) ) ;
#202 = PRODUCT_DEFINITION ( 'NEZNÁMÝ', '', #235, #253 ) ;
#203 = ORIENTED_EDGE ( 'NONE', *, *, #248, .T. ) ;
#204 = DIRECTION ( 'NONE',  ( -0.000000000000000000, -0.000000000000000000, -1.000000000000000000 ) ) ;
#205 = PLANE ( 'NONE',  #85 ) ;
#206 = DIRECTION ( 'NONE',  ( 0.000000000000000000, 0.000000000000000000, 1.000000000000000000 ) ) ;
#207 = DIRECTION ( 'NONE',  ( 0.000000000000000000, 0.000000000000000000, 1.000000000000000000 ) ) ;
#208 = LOCAL_TIME ( 12, 17, 8.000000000000000000, #134 ) ;
#209 = DIRECTION ( 'NONE',  ( 1.000000000000000000, 0.000000000000000000, 0.000000000000000000 ) ) ;
#210 = CC_DESIGN_APPROVAL ( #191, ( #195 ) ) ;
#211 = DIRECTION ( 'NONE',  ( -0.000000000000000000, -0.000000000000000000, -1.000000000000000000 ) ) ;
#212 = SHAPE_DEFINITION_REPRESENTATION ( #222, #142 ) ;
#213 = ADVANCED_FACE ( 'NONE', ( #110 ), #109, .T. ) ;
#214 = UNCERTAINTY_MEASURE_WITH_UNIT (LENGTH_MEASURE( 1.000000000000000082E-05 ), #174, 'distance_accuracy_value', 'NONE');
#215 = CALENDAR_DATE ( 2023, 12, 2 ) ;
#216 = AXIS2_PLACEMENT_3D ( 'NONE', #8, #187, #152 ) ;
#217 = PERSON_AND_ORGANIZATION ( #17, #158 ) ;
#218 = VERTEX_POINT ( 'NONE', #71 ) ;
#219 = VECTOR ( 'NONE', #4, 1000.000000000000000 ) ;
#220 = CARTESIAN_POINT ( 'NONE',  ( 0.000000000000000000, 0.000000000000000000, 125.0000000000000000 ) ) ;
#221 = ORIENTED_EDGE ( 'NONE', *, *, #123, .T. ) ;
#222 = PRODUCT_DEFINITION_SHAPE ( 'NONE', 'NONE',  #202 ) ;
#223 = ORIENTED_EDGE ( 'NONE', *, *, #123, .F. ) ;
#224 = DIRECTION ( 'NONE',  ( 0.000000000000000000, 0.000000000000000000, 1.000000000000000000 ) ) ;
#225 = CC_DESIGN_PERSON_AND_ORGANIZATION_ASSIGNMENT ( #138, #36, ( #235 ) ) ;
#226 = FACE_BOUND ( 'NONE', #19, .T. ) ;
#227 = FACE_OUTER_BOUND ( 'NONE', #95, .T. ) ;
#228 = DIRECTION ( 'NONE',  ( -0.000000000000000000, -0.000000000000000000, -1.000000000000000000 ) ) ;
#229 = AXIS2_PLACEMENT_3D ( 'NONE', #5, #88, #62 ) ;
#230 = PRODUCT_RELATED_PRODUCT_CATEGORY ( 'detail', '', ( #76 ) ) ;
#231 = DIRECTION ( 'NONE',  ( 1.000000000000000000, 0.000000000000000000, 0.000000000000000000 ) ) ;
#232 = MECHANICAL_CONTEXT ( 'NONE', #49, 'mechanical' ) ;
#233 = COORDINATED_UNIVERSAL_TIME_OFFSET ( 1, 0, .AHEAD. ) ;
#234 = DATE_AND_TIME ( #79, #162 ) ;
#235 = PRODUCT_DEFINITION_FORMATION_WITH_SPECIFIED_SOURCE ( 'LIBOVOLNÝ', '', #76, .NOT_KNOWN. ) ;
#236 = PERSON_AND_ORGANIZATION_ROLE ( 'design_owner' ) ;
#237 = DATE_AND_TIME ( #159, #208 ) ;
#238 = CARTESIAN_POINT ( 'NONE',  ( 0.000000000000000000, 0.000000000000000000, 5.000000000000000000 ) ) ;
#239 = DIRECTION ( 'NONE',  ( 1.000000000000000000, 0.000000000000000000, -0.000000000000000000 ) ) ;
#240 = ORIENTED_EDGE ( 'NONE', *, *, #70, .F. ) ;
#241 = PLANE ( 'NONE',  #170 ) ;
#242 = CARTESIAN_POINT ( 'NONE',  ( 0.000000000000000000, 0.000000000000000000, 5.000000000000000000 ) ) ;
#243 = CC_DESIGN_PERSON_AND_ORGANIZATION_ASSIGNMENT ( #197, #236, ( #76 ) ) ;
#244 = DIRECTION ( 'NONE',  ( -1.000000000000000000, 0.000000000000000000, 0.000000000000000000 ) ) ;
#245 = APPLICATION_PROTOCOL_DEFINITION ( 'international standard', 'config_control_design', 1994, #49 ) ;
#246 = AXIS2_PLACEMENT_3D ( 'NONE', #91, #73, #30 ) ;
#247 = FACE_OUTER_BOUND ( 'NONE', #69, .T. ) ;
#248 = EDGE_CURVE ( 'NONE', #160, #99, #22, .T. ) ;
#249 = CARTESIAN_POINT ( 'NONE',  ( 0.000000000000000000, 0.000000000000000000, 0.000000000000000000 ) ) ;
#250 = CIRCLE ( 'NONE', #140, 8.000000000000000000 ) ;
#251 = DATE_TIME_ROLE ( 'creation_date' ) ;
#252 = APPROVAL_DATE_TIME ( #92, #15 ) ;
#253 = DESIGN_CONTEXT ( 'detailed design', #166, 'design' ) ;
#254 = PERSON_AND_ORGANIZATION_ROLE ( 'classification_officer' ) ;
#255 = DATE_AND_TIME ( #97, #54 ) ;
ENDSEC;
END-ISO-10303-21;
