ISO-10303-21;
HEADER;
FILE_DESCRIPTION (( 'STEP AP203' ),
    '1' );
FILE_NAME ('c2d6.STEP',
    '2023-02-12T11:03:22',
    ( '' ),
    ( '' ),
    'SwSTEP 2.0',
    'SolidWorks 2019',
    '' );
FILE_SCHEMA (( 'CONFIG_CONTROL_DESIGN' ));
ENDSEC;

DATA;
#1 = LOCAL_TIME ( 12, 3, 22.00000000000000000, #167 ) ;
#2 = APPROVAL_ROLE ( '' ) ;
#3 = PERSON_AND_ORGANIZATION ( #138, #193 ) ;
#4 = ORIENTED_EDGE ( 'NONE', *, *, #67, .T. ) ;
#5 = VECTOR ( 'NONE', #214, 1000.000000000000000 ) ;
#6 = DATE_AND_TIME ( #183, #117 ) ;
#7 = DIRECTION ( 'NONE',  ( 1.000000000000000000, 0.000000000000000000, 0.000000000000000000 ) ) ;
#8 = SECURITY_CLASSIFICATION_LEVEL ( 'unclassified' ) ;
#9 = EDGE_CURVE ( 'NONE', #208, #241, #39, .T. ) ;
#10 = PERSON_AND_ORGANIZATION ( #138, #193 ) ;
#11 = ORIENTED_EDGE ( 'NONE', *, *, #120, .F. ) ;
#12 = EDGE_LOOP ( 'NONE', ( #225, #184 ) ) ;
#13 = CIRCLE ( 'NONE', #169, 9.000000000000000000 ) ;
#14 = CARTESIAN_POINT ( 'NONE',  ( 0.000000000000000000, 0.000000000000000000, 200.0000000000000000 ) ) ;
#15 = DIRECTION ( 'NONE',  ( -1.000000000000000000, 0.000000000000000000, 0.000000000000000000 ) ) ;
#16 = CARTESIAN_POINT ( 'NONE',  ( 0.000000000000000000, 0.000000000000000000, 200.0000000000000000 ) ) ;
#17 = CARTESIAN_POINT ( 'NONE',  ( 0.000000000000000000, 0.000000000000000000, 200.0000000000000000 ) ) ;
#18 = AXIS2_PLACEMENT_3D ( 'NONE', #119, #22, #254 ) ;
#19 = DIRECTION ( 'NONE',  ( 0.000000000000000000, 0.000000000000000000, 1.000000000000000000 ) ) ;
#20 = DIRECTION ( 'NONE',  ( -0.000000000000000000, -0.000000000000000000, -1.000000000000000000 ) ) ;
#21 =( GEOMETRIC_REPRESENTATION_CONTEXT ( 3 ) GLOBAL_UNCERTAINTY_ASSIGNED_CONTEXT ( ( #59 ) ) GLOBAL_UNIT_ASSIGNED_CONTEXT ( ( #41, #82, #179 ) ) REPRESENTATION_CONTEXT ( 'NONE', 'WORKASPACE' ) );
#22 = DIRECTION ( 'NONE',  ( 0.000000000000000000, 0.000000000000000000, 1.000000000000000000 ) ) ;
#23 = APPROVAL_DATE_TIME ( #128, #196 ) ;
#24 = ADVANCED_FACE ( 'NONE', ( #244 ), #144, .T. ) ;
#25 = CARTESIAN_POINT ( 'NONE',  ( 0.000000000000000000, 0.000000000000000000, 0.000000000000000000 ) ) ;
#26 = ORIENTED_EDGE ( 'NONE', *, *, #163, .F. ) ;
#27 = COORDINATED_UNIVERSAL_TIME_OFFSET ( 1, 0, .AHEAD. ) ;
#28 = CC_DESIGN_PERSON_AND_ORGANIZATION_ASSIGNMENT ( #93, #226, ( #42 ) ) ;
#29 = ORIENTED_EDGE ( 'NONE', *, *, #231, .F. ) ;
#30 = LOCAL_TIME ( 12, 3, 22.00000000000000000, #221 ) ;
#31 = DIRECTION ( 'NONE',  ( 1.000000000000000000, 0.000000000000000000, 0.000000000000000000 ) ) ;
#32 = VERTEX_POINT ( 'NONE', #153 ) ;
#33 = EDGE_LOOP ( 'NONE', ( #123, #191 ) ) ;
#34 = CARTESIAN_POINT ( 'NONE',  ( 0.000000000000000000, 0.000000000000000000, 200.0000000000000000 ) ) ;
#35 = DIRECTION ( 'NONE',  ( 1.000000000000000000, 0.000000000000000000, 0.000000000000000000 ) ) ;
#36 = CARTESIAN_POINT ( 'NONE',  ( 9.000000000000000000, 1.102182119232617714E-15, 7.000000000000000000 ) ) ;
#37 = LINE ( 'NONE', #76, #5 ) ;
#38 = CYLINDRICAL_SURFACE ( 'NONE', #200, 6.099999999999999645 ) ;
#39 = CIRCLE ( 'NONE', #165, 9.000000000000000000 ) ;
#40 = EDGE_CURVE ( 'NONE', #91, #66, #195, .T. ) ;
#41 =( LENGTH_UNIT ( ) NAMED_UNIT ( * ) SI_UNIT ( .MILLI., .METRE. ) );
#42 = PRODUCT_DEFINITION_FORMATION_WITH_SPECIFIED_SOURCE ( 'LIBOVOLNÝ', '', #176, .NOT_KNOWN. ) ;
#43 = CARTESIAN_POINT ( 'NONE',  ( 0.000000000000000000, 0.000000000000000000, 7.000000000000000000 ) ) ;
#44 = PERSON_AND_ORGANIZATION_ROLE ( 'creator' ) ;
#45 = CIRCLE ( 'NONE', #18, 6.099999999999999645 ) ;
#46 = ORIENTED_EDGE ( 'NONE', *, *, #131, .T. ) ;
#47 = DIRECTION ( 'NONE',  ( 0.000000000000000000, 0.000000000000000000, 1.000000000000000000 ) ) ;
#48 = CALENDAR_DATE ( 2023, 12, 2 ) ;
#49 = ORIENTED_EDGE ( 'NONE', *, *, #174, .T. ) ;
#50 = PERSON_AND_ORGANIZATION ( #138, #193 ) ;
#51 = ORIENTED_EDGE ( 'NONE', *, *, #237, .T. ) ;
#52 = LINE ( 'NONE', #213, #253 ) ;
#53 = DIRECTION ( 'NONE',  ( -0.000000000000000000, -0.000000000000000000, -1.000000000000000000 ) ) ;
#54 = DIRECTION ( 'NONE',  ( 1.000000000000000000, 0.000000000000000000, 0.000000000000000000 ) ) ;
#55 = CC_DESIGN_PERSON_AND_ORGANIZATION_ASSIGNMENT ( #10, #140, ( #202 ) ) ;
#56 = CARTESIAN_POINT ( 'NONE',  ( 0.000000000000000000, 0.000000000000000000, 200.0000000000000000 ) ) ;
#57 = CARTESIAN_POINT ( 'NONE',  ( -6.099999999999999645, 0.000000000000000000, 200.0000000000000000 ) ) ;
#58 = CIRCLE ( 'NONE', #155, 6.099999999999999645 ) ;
#59 = UNCERTAINTY_MEASURE_WITH_UNIT (LENGTH_MEASURE( 1.000000000000000082E-05 ), #41, 'distance_accuracy_value', 'NONE');
#60 = AXIS2_PLACEMENT_3D ( 'NONE', #43, #20, #181 ) ;
#61 = ADVANCED_FACE ( 'NONE', ( #234 ), #118, .T. ) ;
#62 = APPROVAL_STATUS ( 'not_yet_approved' ) ;
#63 = ORIENTED_EDGE ( 'NONE', *, *, #174, .F. ) ;
#64 = DESIGN_CONTEXT ( 'detailed design', #79, 'design' ) ;
#65 = DIRECTION ( 'NONE',  ( 0.000000000000000000, 0.000000000000000000, 1.000000000000000000 ) ) ;
#66 = VERTEX_POINT ( 'NONE', #57 ) ;
#67 = EDGE_CURVE ( 'NONE', #147, #208, #136, .T. ) ;
#68 = APPROVAL_ROLE ( '' ) ;
#69 = EDGE_LOOP ( 'NONE', ( #49, #211 ) ) ;
#70 = COORDINATED_UNIVERSAL_TIME_OFFSET ( 1, 0, .AHEAD. ) ;
#71 = EDGE_LOOP ( 'NONE', ( #190, #63, #127, #51 ) ) ;
#72 = LOCAL_TIME ( 12, 3, 22.00000000000000000, #70 ) ;
#73 = LINE ( 'NONE', #250, #150 ) ;
#74 = DIRECTION ( 'NONE',  ( 0.000000000000000000, 0.000000000000000000, 1.000000000000000000 ) ) ;
#75 = APPROVAL ( #109, 'NEURÈENÝ' ) ;
#76 = CARTESIAN_POINT ( 'NONE',  ( -9.000000000000000000, 0.000000000000000000, 7.000000000000000000 ) ) ;
#77 = MANIFOLD_SOLID_BREP ( 'Pøidat vysunutím3', #134 ) ;
#78 = CC_DESIGN_APPROVAL ( #75, ( #206 ) ) ;
#79 = APPLICATION_CONTEXT ( 'configuration controlled 3d designs of mechanical parts and assemblies' ) ;
#80 = CARTESIAN_POINT ( 'NONE',  ( 0.000000000000000000, 0.000000000000000000, 7.000000000000000000 ) ) ;
#81 = CC_DESIGN_DATE_AND_TIME_ASSIGNMENT ( #89, #162, ( #202 ) ) ;
#82 =( NAMED_UNIT ( * ) PLANE_ANGLE_UNIT ( ) SI_UNIT ( $, .RADIAN. ) );
#83 = APPROVAL_PERSON_ORGANIZATION ( #142, #75, #2 ) ;
#84 = CALENDAR_DATE ( 2023, 12, 2 ) ;
#85 = DATE_TIME_ROLE ( 'creation_date' ) ;
#86 = EDGE_CURVE ( 'NONE', #147, #129, #216, .T. ) ;
#87 = CIRCLE ( 'NONE', #99, 9.000000000000000000 ) ;
#88 = EDGE_LOOP ( 'NONE', ( #141, #29 ) ) ;
#89 = DATE_AND_TIME ( #84, #1 ) ;
#90 = PERSON_AND_ORGANIZATION ( #138, #193 ) ;
#91 = VERTEX_POINT ( 'NONE', #100 ) ;
#92 = VECTOR ( 'NONE', #53, 1000.000000000000000 ) ;
#93 = PERSON_AND_ORGANIZATION ( #138, #193 ) ;
#94 = VERTEX_POINT ( 'NONE', #133 ) ;
#95 = ADVANCED_FACE ( 'NONE', ( #198 ), #38, .T. ) ;
#96 = EDGE_LOOP ( 'NONE', ( #239, #107, #106, #26 ) ) ;
#97 = DIRECTION ( 'NONE',  ( 0.000000000000000000, 0.000000000000000000, 1.000000000000000000 ) ) ;
#98 = ADVANCED_FACE ( 'NONE', ( #130 ), #232, .T. ) ;
#99 = AXIS2_PLACEMENT_3D ( 'NONE', #113, #148, #175 ) ;
#100 = CARTESIAN_POINT ( 'NONE',  ( 6.099999999999999645, 7.470345474798854293E-16, 200.0000000000000000 ) ) ;
#101 = APPROVAL_PERSON_ORGANIZATION ( #50, #156, #68 ) ;
#102 = CARTESIAN_POINT ( 'NONE',  ( 0.000000000000000000, 0.000000000000000000, 0.000000000000000000 ) ) ;
#103 = LOCAL_TIME ( 12, 3, 22.00000000000000000, #146 ) ;
#104 = APPLICATION_PROTOCOL_DEFINITION ( 'international standard', 'config_control_design', 1994, #158 ) ;
#105 = CC_DESIGN_APPROVAL ( #156, ( #42 ) ) ;
#106 = ORIENTED_EDGE ( 'NONE', *, *, #231, .T. ) ;
#107 = ORIENTED_EDGE ( 'NONE', *, *, #177, .T. ) ;
#108 = CC_DESIGN_APPROVAL ( #196, ( #202 ) ) ;
#109 = APPROVAL_STATUS ( 'not_yet_approved' ) ;
#110 = PRODUCT_RELATED_PRODUCT_CATEGORY ( 'detail', '', ( #176 ) ) ;
#111 = ORIENTED_EDGE ( 'NONE', *, *, #204, .T. ) ;
#112 = AXIS2_PLACEMENT_3D ( 'NONE', #17, #19, #194 ) ;
#113 = CARTESIAN_POINT ( 'NONE',  ( 0.000000000000000000, 0.000000000000000000, 7.000000000000000000 ) ) ;
#114 = CIRCLE ( 'NONE', #182, 6.099999999999999645 ) ;
#115 = DIRECTION ( 'NONE',  ( -1.000000000000000000, 0.000000000000000000, 0.000000000000000000 ) ) ;
#116 = DIRECTION ( 'NONE',  ( 0.000000000000000000, 0.000000000000000000, 1.000000000000000000 ) ) ;
#117 = LOCAL_TIME ( 12, 3, 22.00000000000000000, #27 ) ;
#118 = CYLINDRICAL_SURFACE ( 'NONE', #185, 6.099999999999999645 ) ;
#119 = CARTESIAN_POINT ( 'NONE',  ( 0.000000000000000000, 0.000000000000000000, 7.000000000000000000 ) ) ;
#120 = EDGE_CURVE ( 'NONE', #129, #147, #87, .T. ) ;
#121 = DIRECTION ( 'NONE',  ( 1.000000000000000000, 0.000000000000000000, 0.000000000000000000 ) ) ;
#122 = SHAPE_DEFINITION_REPRESENTATION ( #157, #242 ) ;
#123 = ORIENTED_EDGE ( 'NONE', *, *, #204, .F. ) ;
#124 = MECHANICAL_CONTEXT ( 'NONE', #158, 'mechanical' ) ;
#125 = PERSON_AND_ORGANIZATION_ROLE ( 'design_owner' ) ;
#126 = ADVANCED_FACE ( 'NONE', ( #172 ), #230, .F. ) ;
#127 = ORIENTED_EDGE ( 'NONE', *, *, #163, .T. ) ;
#128 = DATE_AND_TIME ( #243, #72 ) ;
#129 = VERTEX_POINT ( 'NONE', #247 ) ;
#130 = FACE_OUTER_BOUND ( 'NONE', #69, .T. ) ;
#131 = EDGE_CURVE ( 'NONE', #129, #241, #37, .T. ) ;
#132 = DIRECTION ( 'NONE',  ( -0.000000000000000000, -0.000000000000000000, -1.000000000000000000 ) ) ;
#133 = CARTESIAN_POINT ( 'NONE',  ( -6.099999999999999645, 0.000000000000000000, 7.000000000000000000 ) ) ;
#134 = CLOSED_SHELL ( 'NONE', ( #95, #220, #24, #215, #126, #61, #98 ) ) ;
#135 = CARTESIAN_POINT ( 'NONE',  ( 9.000000000000000000, 1.102182119232617714E-15, 0.000000000000000000 ) ) ;
#136 = LINE ( 'NONE', #36, #92 ) ;
#137 = FACE_OUTER_BOUND ( 'NONE', #12, .T. ) ;
#138 = PERSON ( 'NEURÈENÝ', 'NEURÈENÝ', 'NEURÈENÝ', ('NEURÈENÝ'), ('NEURÈENÝ'), ('NEURÈENÝ') ) ;
#139 = CC_DESIGN_SECURITY_CLASSIFICATION ( #202, ( #42 ) ) ;
#140 = PERSON_AND_ORGANIZATION_ROLE ( 'classification_officer' ) ;
#141 = ORIENTED_EDGE ( 'NONE', *, *, #237, .F. ) ;
#142 = PERSON_AND_ORGANIZATION ( #138, #193 ) ;
#143 = DATE_AND_TIME ( #48, #103 ) ;
#144 = CYLINDRICAL_SURFACE ( 'NONE', #207, 9.000000000000000000 ) ;
#145 = EDGE_LOOP ( 'NONE', ( #210, #4, #222, #227 ) ) ;
#146 = COORDINATED_UNIVERSAL_TIME_OFFSET ( 1, 0, .AHEAD. ) ;
#147 = VERTEX_POINT ( 'NONE', #152 ) ;
#148 = DIRECTION ( 'NONE',  ( 0.000000000000000000, 0.000000000000000000, 1.000000000000000000 ) ) ;
#149 = DIRECTION ( 'NONE',  ( -1.000000000000000000, 0.000000000000000000, 0.000000000000000000 ) ) ;
#150 = VECTOR ( 'NONE', #217, 1000.000000000000000 ) ;
#151 = DIRECTION ( 'NONE',  ( 0.000000000000000000, 0.000000000000000000, 1.000000000000000000 ) ) ;
#152 = CARTESIAN_POINT ( 'NONE',  ( 9.000000000000000000, 1.102182119232617714E-15, 7.000000000000000000 ) ) ;
#153 = CARTESIAN_POINT ( 'NONE',  ( 6.099999999999999645, 7.470345474798854293E-16, 7.000000000000000000 ) ) ;
#154 = FACE_BOUND ( 'NONE', #88, .T. ) ;
#155 = AXIS2_PLACEMENT_3D ( 'NONE', #252, #159, #121 ) ;
#156 = APPROVAL ( #62, 'NEURÈENÝ' ) ;
#157 = PRODUCT_DEFINITION_SHAPE ( 'NONE', 'NONE',  #206 ) ;
#158 = APPLICATION_CONTEXT ( 'configuration controlled 3d designs of mechanical parts and assemblies' ) ;
#159 = DIRECTION ( 'NONE',  ( 0.000000000000000000, 0.000000000000000000, 1.000000000000000000 ) ) ;
#160 = AXIS2_PLACEMENT_3D ( 'NONE', #25, #65, #31 ) ;
#161 = ORIENTED_EDGE ( 'NONE', *, *, #67, .F. ) ;
#162 = DATE_TIME_ROLE ( 'classification_date' ) ;
#163 = EDGE_CURVE ( 'NONE', #66, #94, #73, .T. ) ;
#164 = APPROVAL_ROLE ( '' ) ;
#165 = AXIS2_PLACEMENT_3D ( 'NONE', #187, #47, #7 ) ;
#166 = AXIS2_PLACEMENT_3D ( 'NONE', #197, #97, #35 ) ;
#167 = COORDINATED_UNIVERSAL_TIME_OFFSET ( 1, 0, .AHEAD. ) ;
#168 = DIRECTION ( 'NONE',  ( 0.000000000000000000, 0.000000000000000000, 1.000000000000000000 ) ) ;
#169 = AXIS2_PLACEMENT_3D ( 'NONE', #249, #74, #233 ) ;
#170 = AXIS2_PLACEMENT_3D ( 'NONE', #80, #199, #236 ) ;
#171 = DIRECTION ( 'NONE',  ( -0.000000000000000000, -0.000000000000000000, -1.000000000000000000 ) ) ;
#172 = FACE_OUTER_BOUND ( 'NONE', #33, .T. ) ;
#173 = DIRECTION ( 'NONE',  ( 1.000000000000000000, 0.000000000000000000, -0.000000000000000000 ) ) ;
#174 = EDGE_CURVE ( 'NONE', #66, #91, #114, .T. ) ;
#175 = DIRECTION ( 'NONE',  ( 1.000000000000000000, 0.000000000000000000, 0.000000000000000000 ) ) ;
#176 = PRODUCT ( 'c2d6', 'c2d6', '', ( #124 ) ) ;
#177 = EDGE_CURVE ( 'NONE', #91, #32, #52, .T. ) ;
#178 = FACE_OUTER_BOUND ( 'NONE', #145, .T. ) ;
#179 =( NAMED_UNIT ( * ) SI_UNIT ( $, .STERADIAN. ) SOLID_ANGLE_UNIT ( ) );
#180 = PLANE ( 'NONE',  #170 ) ;
#181 = DIRECTION ( 'NONE',  ( -1.000000000000000000, 0.000000000000000000, 0.000000000000000000 ) ) ;
#182 = AXIS2_PLACEMENT_3D ( 'NONE', #56, #151, #54 ) ;
#183 = CALENDAR_DATE ( 2023, 12, 2 ) ;
#184 = ORIENTED_EDGE ( 'NONE', *, *, #86, .T. ) ;
#185 = AXIS2_PLACEMENT_3D ( 'NONE', #34, #218, #15 ) ;
#186 = APPROVAL_DATE_TIME ( #189, #75 ) ;
#187 = CARTESIAN_POINT ( 'NONE',  ( 0.000000000000000000, 0.000000000000000000, 0.000000000000000000 ) ) ;
#188 = PERSON_AND_ORGANIZATION_ROLE ( 'creator' ) ;
#189 = DATE_AND_TIME ( #209, #30 ) ;
#190 = ORIENTED_EDGE ( 'NONE', *, *, #177, .F. ) ;
#191 = ORIENTED_EDGE ( 'NONE', *, *, #9, .F. ) ;
#192 = DIRECTION ( 'NONE',  ( -0.000000000000000000, -0.000000000000000000, -1.000000000000000000 ) ) ;
#193 = ORGANIZATION ( 'NEURÈENÝ', 'NEURÈENÝ', '' ) ;
#194 = DIRECTION ( 'NONE',  ( 1.000000000000000000, 0.000000000000000000, -0.000000000000000000 ) ) ;
#195 = CIRCLE ( 'NONE', #255, 6.099999999999999645 ) ;
#196 = APPROVAL ( #246, 'NEURÈENÝ' ) ;
#197 = CARTESIAN_POINT ( 'NONE',  ( 0.000000000000000000, 0.000000000000000000, 7.000000000000000000 ) ) ;
#198 = FACE_OUTER_BOUND ( 'NONE', #96, .T. ) ;
#199 = DIRECTION ( 'NONE',  ( 0.000000000000000000, 0.000000000000000000, 1.000000000000000000 ) ) ;
#200 = AXIS2_PLACEMENT_3D ( 'NONE', #14, #132, #115 ) ;
#201 = CARTESIAN_POINT ( 'NONE',  ( -9.000000000000000000, 0.000000000000000000, 0.000000000000000000 ) ) ;
#202 = SECURITY_CLASSIFICATION ( '', '', #8 ) ;
#203 = CYLINDRICAL_SURFACE ( 'NONE', #60, 9.000000000000000000 ) ;
#204 = EDGE_CURVE ( 'NONE', #241, #208, #13, .T. ) ;
#205 = PERSON_AND_ORGANIZATION ( #138, #193 ) ;
#206 = PRODUCT_DEFINITION ( 'NEZNÁMÝ', '', #42, #64 ) ;
#207 = AXIS2_PLACEMENT_3D ( 'NONE', #223, #192, #149 ) ;
#208 = VERTEX_POINT ( 'NONE', #135 ) ;
#209 = CALENDAR_DATE ( 2023, 12, 2 ) ;
#210 = ORIENTED_EDGE ( 'NONE', *, *, #86, .F. ) ;
#211 = ORIENTED_EDGE ( 'NONE', *, *, #40, .T. ) ;
#212 = CC_DESIGN_DATE_AND_TIME_ASSIGNMENT ( #143, #85, ( #206 ) ) ;
#213 = CARTESIAN_POINT ( 'NONE',  ( 6.099999999999999645, 7.470345474798854293E-16, 200.0000000000000000 ) ) ;
#214 = DIRECTION ( 'NONE',  ( -0.000000000000000000, -0.000000000000000000, -1.000000000000000000 ) ) ;
#215 = ADVANCED_FACE ( 'NONE', ( #154, #137 ), #180, .T. ) ;
#216 = CIRCLE ( 'NONE', #166, 9.000000000000000000 ) ;
#217 = DIRECTION ( 'NONE',  ( -0.000000000000000000, -0.000000000000000000, -1.000000000000000000 ) ) ;
#218 = DIRECTION ( 'NONE',  ( -0.000000000000000000, -0.000000000000000000, -1.000000000000000000 ) ) ;
#219 = APPROVAL_PERSON_ORGANIZATION ( #90, #196, #164 ) ;
#220 = ADVANCED_FACE ( 'NONE', ( #178 ), #203, .T. ) ;
#221 = COORDINATED_UNIVERSAL_TIME_OFFSET ( 1, 0, .AHEAD. ) ;
#222 = ORIENTED_EDGE ( 'NONE', *, *, #9, .T. ) ;
#223 = CARTESIAN_POINT ( 'NONE',  ( 0.000000000000000000, 0.000000000000000000, 7.000000000000000000 ) ) ;
#224 = APPLICATION_PROTOCOL_DEFINITION ( 'international standard', 'config_control_design', 1994, #79 ) ;
#225 = ORIENTED_EDGE ( 'NONE', *, *, #120, .T. ) ;
#226 = PERSON_AND_ORGANIZATION_ROLE ( 'design_supplier' ) ;
#227 = ORIENTED_EDGE ( 'NONE', *, *, #131, .F. ) ;
#228 = DIRECTION ( 'NONE',  ( 1.000000000000000000, 0.000000000000000000, 0.000000000000000000 ) ) ;
#229 = AXIS2_PLACEMENT_3D ( 'NONE', #102, #168, #173 ) ;
#230 = PLANE ( 'NONE',  #229 ) ;
#231 = EDGE_CURVE ( 'NONE', #32, #94, #58, .T. ) ;
#232 = PLANE ( 'NONE',  #112 ) ;
#233 = DIRECTION ( 'NONE',  ( 1.000000000000000000, 0.000000000000000000, 0.000000000000000000 ) ) ;
#234 = FACE_OUTER_BOUND ( 'NONE', #71, .T. ) ;
#235 = CC_DESIGN_PERSON_AND_ORGANIZATION_ASSIGNMENT ( #3, #188, ( #42 ) ) ;
#236 = DIRECTION ( 'NONE',  ( 1.000000000000000000, 0.000000000000000000, -0.000000000000000000 ) ) ;
#237 = EDGE_CURVE ( 'NONE', #94, #32, #45, .T. ) ;
#238 = APPROVAL_DATE_TIME ( #6, #156 ) ;
#239 = ORIENTED_EDGE ( 'NONE', *, *, #40, .F. ) ;
#240 = PERSON_AND_ORGANIZATION ( #138, #193 ) ;
#241 = VERTEX_POINT ( 'NONE', #201 ) ;
#242 = ADVANCED_BREP_SHAPE_REPRESENTATION ( 'c2d6', ( #77, #160 ), #21 ) ;
#243 = CALENDAR_DATE ( 2023, 12, 2 ) ;
#244 = FACE_OUTER_BOUND ( 'NONE', #245, .T. ) ;
#245 = EDGE_LOOP ( 'NONE', ( #161, #11, #46, #111 ) ) ;
#246 = APPROVAL_STATUS ( 'not_yet_approved' ) ;
#247 = CARTESIAN_POINT ( 'NONE',  ( -9.000000000000000000, 0.000000000000000000, 7.000000000000000000 ) ) ;
#248 = CC_DESIGN_PERSON_AND_ORGANIZATION_ASSIGNMENT ( #240, #125, ( #176 ) ) ;
#249 = CARTESIAN_POINT ( 'NONE',  ( 0.000000000000000000, 0.000000000000000000, 0.000000000000000000 ) ) ;
#250 = CARTESIAN_POINT ( 'NONE',  ( -6.099999999999999645, 0.000000000000000000, 200.0000000000000000 ) ) ;
#251 = CC_DESIGN_PERSON_AND_ORGANIZATION_ASSIGNMENT ( #205, #44, ( #206 ) ) ;
#252 = CARTESIAN_POINT ( 'NONE',  ( 0.000000000000000000, 0.000000000000000000, 7.000000000000000000 ) ) ;
#253 = VECTOR ( 'NONE', #171, 1000.000000000000000 ) ;
#254 = DIRECTION ( 'NONE',  ( 1.000000000000000000, 0.000000000000000000, 0.000000000000000000 ) ) ;
#255 = AXIS2_PLACEMENT_3D ( 'NONE', #16, #116, #228 ) ;
ENDSEC;
END-ISO-10303-21;
