ISO-10303-21;
HEADER;
FILE_DESCRIPTION (( 'STEP AP203' ),
    '1' );
FILE_NAME ('0fb0.STEP',
    '2023-02-12T10:28:58',
    ( '' ),
    ( '' ),
    'SwSTEP 2.0',
    'SolidWorks 2019',
    '' );
FILE_SCHEMA (( 'CONFIG_CONTROL_DESIGN' ));
ENDSEC;

DATA;
#1 = ORIENTED_EDGE ( 'NONE', *, *, #234, .F. ) ;
#2 = AXIS2_PLACEMENT_3D ( 'NONE', #85, #68, #220 ) ;
#3 = ORIENTED_EDGE ( 'NONE', *, *, #26, .F. ) ;
#4 = ORIENTED_EDGE ( 'NONE', *, *, #146, .T. ) ;
#5 = ADVANCED_BREP_SHAPE_REPRESENTATION ( '0fb0', ( #223, #175 ), #212 ) ;
#6 = CLOSED_SHELL ( 'NONE', ( #34, #96, #87, #60, #92, #13, #218 ) ) ;
#7 = PLANE ( 'NONE',  #235 ) ;
#8 = APPROVAL_PERSON_ORGANIZATION ( #141, #67, #160 ) ;
#9 = EDGE_LOOP ( 'NONE', ( #254, #197 ) ) ;
#10 = DIRECTION ( 'NONE',  ( -1.000000000000000000, 0.000000000000000000, 0.000000000000000000 ) ) ;
#11 = CYLINDRICAL_SURFACE ( 'NONE', #59, 12.50000000000000000 ) ;
#12 = DIRECTION ( 'NONE',  ( 1.000000000000000000, 0.000000000000000000, 0.000000000000000000 ) ) ;
#13 = ADVANCED_FACE ( 'NONE', ( #110 ), #11, .T. ) ;
#14 = DATE_AND_TIME ( #187, #16 ) ;
#15 = PERSON_AND_ORGANIZATION_ROLE ( 'design_owner' ) ;
#16 = LOCAL_TIME ( 11, 28, 58.00000000000000000, #230 ) ;
#17 = CARTESIAN_POINT ( 'NONE',  ( -12.50000000000000000, 0.000000000000000000, 10.00000000000000000 ) ) ;
#18 = EDGE_CURVE ( 'NONE', #172, #237, #221, .T. ) ;
#19 = ORIENTED_EDGE ( 'NONE', *, *, #198, .F. ) ;
#20 = EDGE_LOOP ( 'NONE', ( #183, #136, #232, #3 ) ) ;
#21 = SHAPE_DEFINITION_REPRESENTATION ( #142, #5 ) ;
#22 = EDGE_LOOP ( 'NONE', ( #62, #24 ) ) ;
#23 = CARTESIAN_POINT ( 'NONE',  ( -16.00000000000000000, 0.000000000000000000, 10.00000000000000000 ) ) ;
#24 = ORIENTED_EDGE ( 'NONE', *, *, #29, .F. ) ;
#25 = LOCAL_TIME ( 11, 28, 58.00000000000000000, #118 ) ;
#26 = EDGE_CURVE ( 'NONE', #46, #216, #90, .T. ) ;
#27 = CARTESIAN_POINT ( 'NONE',  ( -16.00000000000000000, 0.000000000000000000, 10.00000000000000000 ) ) ;
#28 = LINE ( 'NONE', #245, #89 ) ;
#29 = EDGE_CURVE ( 'NONE', #237, #216, #248, .T. ) ;
#30 = DIRECTION ( 'NONE',  ( 1.000000000000000000, 0.000000000000000000, 0.000000000000000000 ) ) ;
#31 = APPROVAL_STATUS ( 'not_yet_approved' ) ;
#32 = CARTESIAN_POINT ( 'NONE',  ( 0.000000000000000000, 0.000000000000000000, 10.00000000000000000 ) ) ;
#33 = PERSON_AND_ORGANIZATION ( #161, #253 ) ;
#34 = ADVANCED_FACE ( 'NONE', ( #51 ), #241, .T. ) ;
#35 = CIRCLE ( 'NONE', #240, 16.00000000000000000 ) ;
#36 = CARTESIAN_POINT ( 'NONE',  ( 16.00000000000000000, 1.959434878635765131E-15, 0.000000000000000000 ) ) ;
#37 = DIRECTION ( 'NONE',  ( 1.000000000000000000, 0.000000000000000000, 0.000000000000000000 ) ) ;
#38 = PERSON_AND_ORGANIZATION ( #161, #253 ) ;
#39 = ORIENTED_EDGE ( 'NONE', *, *, #71, .F. ) ;
#40 = AXIS2_PLACEMENT_3D ( 'NONE', #52, #169, #30 ) ;
#41 = DATE_AND_TIME ( #140, #25 ) ;
#42 = EDGE_LOOP ( 'NONE', ( #180, #1, #214, #82 ) ) ;
#43 = CC_DESIGN_PERSON_AND_ORGANIZATION_ASSIGNMENT ( #251, #15, ( #165 ) ) ;
#44 = APPROVAL_DATE_TIME ( #121, #101 ) ;
#45 = CC_DESIGN_SECURITY_CLASSIFICATION ( #190, ( #143 ) ) ;
#46 = VERTEX_POINT ( 'NONE', #23 ) ;
#47 = FACE_OUTER_BOUND ( 'NONE', #191, .T. ) ;
#48 = EDGE_CURVE ( 'NONE', #49, #193, #147, .T. ) ;
#49 = VERTEX_POINT ( 'NONE', #219 ) ;
#50 = AXIS2_PLACEMENT_3D ( 'NONE', #127, #173, #203 ) ;
#51 = FACE_OUTER_BOUND ( 'NONE', #236, .T. ) ;
#52 = CARTESIAN_POINT ( 'NONE',  ( 0.000000000000000000, 0.000000000000000000, 0.000000000000000000 ) ) ;
#53 = EDGE_CURVE ( 'NONE', #181, #122, #28, .T. ) ;
#54 = CARTESIAN_POINT ( 'NONE',  ( 0.000000000000000000, 0.000000000000000000, 0.000000000000000000 ) ) ;
#55 = APPLICATION_PROTOCOL_DEFINITION ( 'international standard', 'config_control_design', 1994, #115 ) ;
#56 = CIRCLE ( 'NONE', #249, 12.50000000000000000 ) ;
#57 =( LENGTH_UNIT ( ) NAMED_UNIT ( * ) SI_UNIT ( .MILLI., .METRE. ) );
#58 = PERSON_AND_ORGANIZATION ( #161, #253 ) ;
#59 = AXIS2_PLACEMENT_3D ( 'NONE', #200, #145, #10 ) ;
#60 = ADVANCED_FACE ( 'NONE', ( #186, #47 ), #109, .T. ) ;
#61 = DATE_TIME_ROLE ( 'classification_date' ) ;
#62 = ORIENTED_EDGE ( 'NONE', *, *, #104, .F. ) ;
#63 = AXIS2_PLACEMENT_3D ( 'NONE', #209, #207, #206 ) ;
#64 = PERSON_AND_ORGANIZATION ( #161, #253 ) ;
#65 = APPLICATION_CONTEXT ( 'configuration controlled 3d designs of mechanical parts and assemblies' ) ;
#66 = CYLINDRICAL_SURFACE ( 'NONE', #217, 16.00000000000000000 ) ;
#67 = APPROVAL ( #137, 'NEURÈENÝ' ) ;
#68 = DIRECTION ( 'NONE',  ( 0.000000000000000000, 0.000000000000000000, 1.000000000000000000 ) ) ;
#69 = DIRECTION ( 'NONE',  ( 0.000000000000000000, 0.000000000000000000, 1.000000000000000000 ) ) ;
#70 = CYLINDRICAL_SURFACE ( 'NONE', #201, 16.00000000000000000 ) ;
#71 = EDGE_CURVE ( 'NONE', #49, #181, #79, .T. ) ;
#72 = LOCAL_TIME ( 11, 28, 58.00000000000000000, #233 ) ;
#73 = FACE_OUTER_BOUND ( 'NONE', #42, .T. ) ;
#74 =( NAMED_UNIT ( * ) PLANE_ANGLE_UNIT ( ) SI_UNIT ( $, .RADIAN. ) );
#75 = AXIS2_PLACEMENT_3D ( 'NONE', #242, #69, #12 ) ;
#76 = DIRECTION ( 'NONE',  ( 1.000000000000000000, 0.000000000000000000, 0.000000000000000000 ) ) ;
#77 = CARTESIAN_POINT ( 'NONE',  ( 16.00000000000000000, 1.959434878635765131E-15, 10.00000000000000000 ) ) ;
#78 = CALENDAR_DATE ( 2023, 12, 2 ) ;
#79 = CIRCLE ( 'NONE', #75, 12.50000000000000000 ) ;
#80 = ORIENTED_EDGE ( 'NONE', *, *, #250, .T. ) ;
#81 = PERSON_AND_ORGANIZATION_ROLE ( 'creator' ) ;
#82 = ORIENTED_EDGE ( 'NONE', *, *, #104, .T. ) ;
#83 = EDGE_LOOP ( 'NONE', ( #117, #105 ) ) ;
#84 = PRODUCT_DEFINITION ( 'NEZNÁMÝ', '', #143, #210 ) ;
#85 = CARTESIAN_POINT ( 'NONE',  ( 0.000000000000000000, 0.000000000000000000, 10.00000000000000000 ) ) ;
#86 = CARTESIAN_POINT ( 'NONE',  ( -12.50000000000000000, 0.000000000000000000, 315.0000000000000000 ) ) ;
#87 = ADVANCED_FACE ( 'NONE', ( #73 ), #70, .T. ) ;
#88 = DIRECTION ( 'NONE',  ( -0.000000000000000000, -0.000000000000000000, -1.000000000000000000 ) ) ;
#89 = VECTOR ( 'NONE', #106, 1000.000000000000000 ) ;
#90 = LINE ( 'NONE', #27, #152 ) ;
#91 = APPROVAL_DATE_TIME ( #14, #238 ) ;
#92 = ADVANCED_FACE ( 'NONE', ( #185 ), #7, .F. ) ;
#93 = APPROVAL_ROLE ( '' ) ;
#94 = AXIS2_PLACEMENT_3D ( 'NONE', #125, #184, #171 ) ;
#95 = DIRECTION ( 'NONE',  ( 1.000000000000000000, 0.000000000000000000, 0.000000000000000000 ) ) ;
#96 = ADVANCED_FACE ( 'NONE', ( #224 ), #66, .T. ) ;
#97 = DIRECTION ( 'NONE',  ( 1.000000000000000000, 0.000000000000000000, 0.000000000000000000 ) ) ;
#98 = PERSON_AND_ORGANIZATION_ROLE ( 'classification_officer' ) ;
#99 = CIRCLE ( 'NONE', #63, 16.00000000000000000 ) ;
#100 = ORIENTED_EDGE ( 'NONE', *, *, #53, .T. ) ;
#101 = APPROVAL ( #179, 'NEURÈENÝ' ) ;
#102 = CALENDAR_DATE ( 2023, 12, 2 ) ;
#103 = ORIENTED_EDGE ( 'NONE', *, *, #48, .T. ) ;
#104 = EDGE_CURVE ( 'NONE', #216, #237, #156, .T. ) ;
#105 = ORIENTED_EDGE ( 'NONE', *, *, #250, .F. ) ;
#106 = DIRECTION ( 'NONE',  ( -0.000000000000000000, -0.000000000000000000, -1.000000000000000000 ) ) ;
#107 = CC_DESIGN_APPROVAL ( #238, ( #84 ) ) ;
#108 = DIRECTION ( 'NONE',  ( -0.000000000000000000, -0.000000000000000000, -1.000000000000000000 ) ) ;
#109 = PLANE ( 'NONE',  #94 ) ;
#110 = FACE_OUTER_BOUND ( 'NONE', #199, .T. ) ;
#111 = DIRECTION ( 'NONE',  ( -0.000000000000000000, -0.000000000000000000, -1.000000000000000000 ) ) ;
#112 = CC_DESIGN_DATE_AND_TIME_ASSIGNMENT ( #163, #135, ( #84 ) ) ;
#113 = DIRECTION ( 'NONE',  ( 0.000000000000000000, 0.000000000000000000, 1.000000000000000000 ) ) ;
#114 = AXIS2_PLACEMENT_3D ( 'NONE', #154, #189, #176 ) ;
#115 = APPLICATION_CONTEXT ( 'configuration controlled 3d designs of mechanical parts and assemblies' ) ;
#116 = MECHANICAL_CONTEXT ( 'NONE', #115, 'mechanical' ) ;
#117 = ORIENTED_EDGE ( 'NONE', *, *, #146, .F. ) ;
#118 = COORDINATED_UNIVERSAL_TIME_OFFSET ( 1, 0, .AHEAD. ) ;
#119 = CC_DESIGN_DATE_AND_TIME_ASSIGNMENT ( #215, #61, ( #190 ) ) ;
#120 = ORIENTED_EDGE ( 'NONE', *, *, #195, .T. ) ;
#121 = DATE_AND_TIME ( #102, #72 ) ;
#122 = VERTEX_POINT ( 'NONE', #182 ) ;
#123 = APPROVAL_PERSON_ORGANIZATION ( #157, #101, #211 ) ;
#124 = APPROVAL_DATE_TIME ( #41, #67 ) ;
#125 = CARTESIAN_POINT ( 'NONE',  ( 0.000000000000000000, 0.000000000000000000, 10.00000000000000000 ) ) ;
#126 = DIRECTION ( 'NONE',  ( -1.000000000000000000, 0.000000000000000000, 0.000000000000000000 ) ) ;
#127 = CARTESIAN_POINT ( 'NONE',  ( 0.000000000000000000, 0.000000000000000000, 315.0000000000000000 ) ) ;
#128 = CARTESIAN_POINT ( 'NONE',  ( 0.000000000000000000, 0.000000000000000000, 10.00000000000000000 ) ) ;
#129 = DIRECTION ( 'NONE',  ( 1.000000000000000000, 0.000000000000000000, -0.000000000000000000 ) ) ;
#130 = AXIS2_PLACEMENT_3D ( 'NONE', #134, #229, #97 ) ;
#131 = APPLICATION_PROTOCOL_DEFINITION ( 'international standard', 'config_control_design', 1994, #65 ) ;
#132 = CARTESIAN_POINT ( 'NONE',  ( 12.50000000000000000, 1.530808498934191521E-15, 315.0000000000000000 ) ) ;
#133 = FACE_OUTER_BOUND ( 'NONE', #9, .T. ) ;
#134 = CARTESIAN_POINT ( 'NONE',  ( 0.000000000000000000, 0.000000000000000000, 315.0000000000000000 ) ) ;
#135 = DATE_TIME_ROLE ( 'creation_date' ) ;
#136 = ORIENTED_EDGE ( 'NONE', *, *, #18, .T. ) ;
#137 = APPROVAL_STATUS ( 'not_yet_approved' ) ;
#138 = CIRCLE ( 'NONE', #2, 12.50000000000000000 ) ;
#139 = ORIENTED_EDGE ( 'NONE', *, *, #234, .T. ) ;
#140 = CALENDAR_DATE ( 2023, 12, 2 ) ;
#141 = PERSON_AND_ORGANIZATION ( #161, #253 ) ;
#142 = PRODUCT_DEFINITION_SHAPE ( 'NONE', 'NONE',  #84 ) ;
#143 = PRODUCT_DEFINITION_FORMATION_WITH_SPECIFIED_SOURCE ( 'LIBOVOLNÝ', '', #165, .NOT_KNOWN. ) ;
#144 = CARTESIAN_POINT ( 'NONE',  ( 16.00000000000000000, 1.959434878635765131E-15, 10.00000000000000000 ) ) ;
#145 = DIRECTION ( 'NONE',  ( -0.000000000000000000, -0.000000000000000000, -1.000000000000000000 ) ) ;
#146 = EDGE_CURVE ( 'NONE', #193, #122, #138, .T. ) ;
#147 = LINE ( 'NONE', #86, #196 ) ;
#148 = DIRECTION ( 'NONE',  ( 0.000000000000000000, 0.000000000000000000, 1.000000000000000000 ) ) ;
#149 = CARTESIAN_POINT ( 'NONE',  ( 0.000000000000000000, 0.000000000000000000, 10.00000000000000000 ) ) ;
#150 = UNCERTAINTY_MEASURE_WITH_UNIT (LENGTH_MEASURE( 1.000000000000000082E-05 ), #57, 'distance_accuracy_value', 'NONE');
#151 = CARTESIAN_POINT ( 'NONE',  ( 0.000000000000000000, 0.000000000000000000, 0.000000000000000000 ) ) ;
#152 = VECTOR ( 'NONE', #243, 1000.000000000000000 ) ;
#153 = COORDINATED_UNIVERSAL_TIME_OFFSET ( 1, 0, .AHEAD. ) ;
#154 = CARTESIAN_POINT ( 'NONE',  ( 0.000000000000000000, 0.000000000000000000, 315.0000000000000000 ) ) ;
#155 = AXIS2_PLACEMENT_3D ( 'NONE', #54, #205, #167 ) ;
#156 = CIRCLE ( 'NONE', #155, 16.00000000000000000 ) ;
#157 = PERSON_AND_ORGANIZATION ( #161, #253 ) ;
#158 = CC_DESIGN_PERSON_AND_ORGANIZATION_ASSIGNMENT ( #58, #247, ( #84 ) ) ;
#159 = COORDINATED_UNIVERSAL_TIME_OFFSET ( 1, 0, .AHEAD. ) ;
#160 = APPROVAL_ROLE ( '' ) ;
#161 = PERSON ( 'NEURÈENÝ', 'NEURÈENÝ', 'NEURÈENÝ', ('NEURÈENÝ'), ('NEURÈENÝ'), ('NEURÈENÝ') ) ;
#162 = ORIENTED_EDGE ( 'NONE', *, *, #48, .F. ) ;
#163 = DATE_AND_TIME ( #228, #168 ) ;
#164 = ORIENTED_EDGE ( 'NONE', *, *, #53, .F. ) ;
#165 = PRODUCT ( '0fb0', '0fb0', '', ( #116 ) ) ;
#166 = PERSON_AND_ORGANIZATION_ROLE ( 'design_supplier' ) ;
#167 = DIRECTION ( 'NONE',  ( 1.000000000000000000, 0.000000000000000000, 0.000000000000000000 ) ) ;
#168 = LOCAL_TIME ( 11, 28, 58.00000000000000000, #153 ) ;
#169 = DIRECTION ( 'NONE',  ( 0.000000000000000000, 0.000000000000000000, 1.000000000000000000 ) ) ;
#170 = CC_DESIGN_PERSON_AND_ORGANIZATION_ASSIGNMENT ( #192, #98, ( #190 ) ) ;
#171 = DIRECTION ( 'NONE',  ( 1.000000000000000000, 0.000000000000000000, -0.000000000000000000 ) ) ;
#172 = VERTEX_POINT ( 'NONE', #77 ) ;
#173 = DIRECTION ( 'NONE',  ( -0.000000000000000000, -0.000000000000000000, -1.000000000000000000 ) ) ;
#174 = CARTESIAN_POINT ( 'NONE',  ( 0.000000000000000000, 0.000000000000000000, 10.00000000000000000 ) ) ;
#175 = AXIS2_PLACEMENT_3D ( 'NONE', #151, #113, #37 ) ;
#176 = DIRECTION ( 'NONE',  ( 1.000000000000000000, 0.000000000000000000, -0.000000000000000000 ) ) ;
#177 = DIRECTION ( 'NONE',  ( 0.000000000000000000, 0.000000000000000000, 1.000000000000000000 ) ) ;
#178 = CARTESIAN_POINT ( 'NONE',  ( -16.00000000000000000, 0.000000000000000000, 0.000000000000000000 ) ) ;
#179 = APPROVAL_STATUS ( 'not_yet_approved' ) ;
#180 = ORIENTED_EDGE ( 'NONE', *, *, #18, .F. ) ;
#181 = VERTEX_POINT ( 'NONE', #132 ) ;
#182 = CARTESIAN_POINT ( 'NONE',  ( 12.50000000000000000, 1.530808498934191521E-15, 10.00000000000000000 ) ) ;
#183 = ORIENTED_EDGE ( 'NONE', *, *, #195, .F. ) ;
#184 = DIRECTION ( 'NONE',  ( 0.000000000000000000, 0.000000000000000000, 1.000000000000000000 ) ) ;
#185 = FACE_OUTER_BOUND ( 'NONE', #22, .T. ) ;
#186 = FACE_BOUND ( 'NONE', #83, .T. ) ;
#187 = CALENDAR_DATE ( 2023, 12, 2 ) ;
#188 = VECTOR ( 'NONE', #88, 1000.000000000000000 ) ;
#189 = DIRECTION ( 'NONE',  ( 0.000000000000000000, 0.000000000000000000, 1.000000000000000000 ) ) ;
#190 = SECURITY_CLASSIFICATION ( '', '', #194 ) ;
#191 = EDGE_LOOP ( 'NONE', ( #139, #120 ) ) ;
#192 = PERSON_AND_ORGANIZATION ( #161, #253 ) ;
#193 = VERTEX_POINT ( 'NONE', #17 ) ;
#194 = SECURITY_CLASSIFICATION_LEVEL ( 'unclassified' ) ;
#195 = EDGE_CURVE ( 'NONE', #172, #46, #99, .T. ) ;
#196 = VECTOR ( 'NONE', #111, 1000.000000000000000 ) ;
#197 = ORIENTED_EDGE ( 'NONE', *, *, #198, .T. ) ;
#198 = EDGE_CURVE ( 'NONE', #181, #49, #202, .T. ) ;
#199 = EDGE_LOOP ( 'NONE', ( #164, #39, #103, #4 ) ) ;
#200 = CARTESIAN_POINT ( 'NONE',  ( 0.000000000000000000, 0.000000000000000000, 315.0000000000000000 ) ) ;
#201 = AXIS2_PLACEMENT_3D ( 'NONE', #149, #108, #126 ) ;
#202 = CIRCLE ( 'NONE', #130, 12.50000000000000000 ) ;
#203 = DIRECTION ( 'NONE',  ( -1.000000000000000000, 0.000000000000000000, 0.000000000000000000 ) ) ;
#204 = DIRECTION ( 'NONE',  ( -1.000000000000000000, 0.000000000000000000, 0.000000000000000000 ) ) ;
#205 = DIRECTION ( 'NONE',  ( 0.000000000000000000, 0.000000000000000000, 1.000000000000000000 ) ) ;
#206 = DIRECTION ( 'NONE',  ( 1.000000000000000000, 0.000000000000000000, 0.000000000000000000 ) ) ;
#207 = DIRECTION ( 'NONE',  ( 0.000000000000000000, 0.000000000000000000, 1.000000000000000000 ) ) ;
#208 = CC_DESIGN_PERSON_AND_ORGANIZATION_ASSIGNMENT ( #64, #166, ( #143 ) ) ;
#209 = CARTESIAN_POINT ( 'NONE',  ( 0.000000000000000000, 0.000000000000000000, 10.00000000000000000 ) ) ;
#210 = DESIGN_CONTEXT ( 'detailed design', #65, 'design' ) ;
#211 = APPROVAL_ROLE ( '' ) ;
#212 =( GEOMETRIC_REPRESENTATION_CONTEXT ( 3 ) GLOBAL_UNCERTAINTY_ASSIGNED_CONTEXT ( ( #150 ) ) GLOBAL_UNIT_ASSIGNED_CONTEXT ( ( #57, #74, #252 ) ) REPRESENTATION_CONTEXT ( 'NONE', 'WORKASPACE' ) );
#213 = PRODUCT_RELATED_PRODUCT_CATEGORY ( 'detail', '', ( #165 ) ) ;
#214 = ORIENTED_EDGE ( 'NONE', *, *, #26, .T. ) ;
#215 = DATE_AND_TIME ( #78, #227 ) ;
#216 = VERTEX_POINT ( 'NONE', #178 ) ;
#217 = AXIS2_PLACEMENT_3D ( 'NONE', #128, #225, #204 ) ;
#218 = ADVANCED_FACE ( 'NONE', ( #133 ), #246, .T. ) ;
#219 = CARTESIAN_POINT ( 'NONE',  ( -12.50000000000000000, 0.000000000000000000, 315.0000000000000000 ) ) ;
#220 = DIRECTION ( 'NONE',  ( 1.000000000000000000, 0.000000000000000000, 0.000000000000000000 ) ) ;
#221 = LINE ( 'NONE', #144, #188 ) ;
#222 = CC_DESIGN_APPROVAL ( #67, ( #143 ) ) ;
#223 = MANIFOLD_SOLID_BREP ( 'Pøidat vysunutím3', #6 ) ;
#224 = FACE_OUTER_BOUND ( 'NONE', #20, .T. ) ;
#225 = DIRECTION ( 'NONE',  ( -0.000000000000000000, -0.000000000000000000, -1.000000000000000000 ) ) ;
#226 = DIRECTION ( 'NONE',  ( 0.000000000000000000, 0.000000000000000000, 1.000000000000000000 ) ) ;
#227 = LOCAL_TIME ( 11, 28, 58.00000000000000000, #159 ) ;
#228 = CALENDAR_DATE ( 2023, 12, 2 ) ;
#229 = DIRECTION ( 'NONE',  ( 0.000000000000000000, 0.000000000000000000, 1.000000000000000000 ) ) ;
#230 = COORDINATED_UNIVERSAL_TIME_OFFSET ( 1, 0, .AHEAD. ) ;
#231 = APPROVAL_PERSON_ORGANIZATION ( #33, #238, #93 ) ;
#232 = ORIENTED_EDGE ( 'NONE', *, *, #29, .T. ) ;
#233 = COORDINATED_UNIVERSAL_TIME_OFFSET ( 1, 0, .AHEAD. ) ;
#234 = EDGE_CURVE ( 'NONE', #46, #172, #35, .T. ) ;
#235 = AXIS2_PLACEMENT_3D ( 'NONE', #239, #148, #129 ) ;
#236 = EDGE_LOOP ( 'NONE', ( #19, #100, #80, #162 ) ) ;
#237 = VERTEX_POINT ( 'NONE', #36 ) ;
#238 = APPROVAL ( #31, 'NEURÈENÝ' ) ;
#239 = CARTESIAN_POINT ( 'NONE',  ( 0.000000000000000000, 0.000000000000000000, 0.000000000000000000 ) ) ;
#240 = AXIS2_PLACEMENT_3D ( 'NONE', #174, #226, #76 ) ;
#241 = CYLINDRICAL_SURFACE ( 'NONE', #50, 12.50000000000000000 ) ;
#242 = CARTESIAN_POINT ( 'NONE',  ( 0.000000000000000000, 0.000000000000000000, 315.0000000000000000 ) ) ;
#243 = DIRECTION ( 'NONE',  ( -0.000000000000000000, -0.000000000000000000, -1.000000000000000000 ) ) ;
#244 = CC_DESIGN_APPROVAL ( #101, ( #190 ) ) ;
#245 = CARTESIAN_POINT ( 'NONE',  ( 12.50000000000000000, 1.530808498934191521E-15, 315.0000000000000000 ) ) ;
#246 = PLANE ( 'NONE',  #114 ) ;
#247 = PERSON_AND_ORGANIZATION_ROLE ( 'creator' ) ;
#248 = CIRCLE ( 'NONE', #40, 16.00000000000000000 ) ;
#249 = AXIS2_PLACEMENT_3D ( 'NONE', #32, #177, #95 ) ;
#250 = EDGE_CURVE ( 'NONE', #122, #193, #56, .T. ) ;
#251 = PERSON_AND_ORGANIZATION ( #161, #253 ) ;
#252 =( NAMED_UNIT ( * ) SI_UNIT ( $, .STERADIAN. ) SOLID_ANGLE_UNIT ( ) );
#253 = ORGANIZATION ( 'NEURÈENÝ', 'NEURÈENÝ', '' ) ;
#254 = ORIENTED_EDGE ( 'NONE', *, *, #71, .T. ) ;
#255 = CC_DESIGN_PERSON_AND_ORGANIZATION_ASSIGNMENT ( #38, #81, ( #143 ) ) ;
ENDSEC;
END-ISO-10303-21;
