ISO-10303-21;
HEADER;
FILE_DESCRIPTION (( 'STEP AP203' ),
    '1' );
FILE_NAME ('f5c5.STEP',
    '2023-02-12T12:30:30',
    ( '' ),
    ( '' ),
    'SwSTEP 2.0',
    'SolidWorks 2019',
    '' );
FILE_SCHEMA (( 'CONFIG_CONTROL_DESIGN' ));
ENDSEC;

DATA;
#1 = ADVANCED_FACE ( 'NONE', ( #71 ), #145, .T. ) ;
#2 = CARTESIAN_POINT ( 'NONE',  ( 2.500000000000000000, 3.061616997868383141E-16, 315.0000000000000000 ) ) ;
#3 = CIRCLE ( 'NONE', #48, 2.500000000000000000 ) ;
#4 = DATE_AND_TIME ( #242, #76 ) ;
#5 = EDGE_LOOP ( 'NONE', ( #28, #202, #239, #44 ) ) ;
#6 = ORIENTED_EDGE ( 'NONE', *, *, #253, .F. ) ;
#7 = EDGE_LOOP ( 'NONE', ( #201, #146 ) ) ;
#8 = DIRECTION ( 'NONE',  ( 1.000000000000000000, 0.000000000000000000, -0.000000000000000000 ) ) ;
#9 = CARTESIAN_POINT ( 'NONE',  ( -5.000000000000000000, 0.000000000000000000, 0.000000000000000000 ) ) ;
#10 = AXIS2_PLACEMENT_3D ( 'NONE', #79, #208, #171 ) ;
#11 = CYLINDRICAL_SURFACE ( 'NONE', #75, 2.500000000000000000 ) ;
#12 = DIRECTION ( 'NONE',  ( -1.000000000000000000, 0.000000000000000000, 0.000000000000000000 ) ) ;
#13 = EDGE_CURVE ( 'NONE', #142, #27, #223, .T. ) ;
#14 = VECTOR ( 'NONE', #249, 1000.000000000000000 ) ;
#15 = DIRECTION ( 'NONE',  ( -1.000000000000000000, 0.000000000000000000, 0.000000000000000000 ) ) ;
#16 = COORDINATED_UNIVERSAL_TIME_OFFSET ( 1, 0, .AHEAD. ) ;
#17 = APPLICATION_PROTOCOL_DEFINITION ( 'international standard', 'config_control_design', 1994, #134 ) ;
#18 = EDGE_CURVE ( 'NONE', #68, #142, #93, .T. ) ;
#19 = APPROVAL_ROLE ( '' ) ;
#20 = LOCAL_TIME ( 13, 30, 30.00000000000000000, #16 ) ;
#21 = APPROVAL ( #236, 'NEURÈENÝ' ) ;
#22 = DATE_AND_TIME ( #240, #127 ) ;
#23 = APPROVAL_STATUS ( 'not_yet_approved' ) ;
#24 = EDGE_LOOP ( 'NONE', ( #126, #42 ) ) ;
#25 = VERTEX_POINT ( 'NONE', #29 ) ;
#26 = CC_DESIGN_PERSON_AND_ORGANIZATION_ASSIGNMENT ( #219, #243, ( #204 ) ) ;
#27 = VERTEX_POINT ( 'NONE', #9 ) ;
#28 = ORIENTED_EDGE ( 'NONE', *, *, #46, .F. ) ;
#29 = CARTESIAN_POINT ( 'NONE',  ( -2.500000000000000000, 0.000000000000000000, 315.0000000000000000 ) ) ;
#30 = EDGE_CURVE ( 'NONE', #199, #143, #181, .T. ) ;
#31 = CARTESIAN_POINT ( 'NONE',  ( 0.000000000000000000, 0.000000000000000000, 315.0000000000000000 ) ) ;
#32 = VECTOR ( 'NONE', #111, 1000.000000000000000 ) ;
#33 = CARTESIAN_POINT ( 'NONE',  ( 5.000000000000000000, 6.123233995736766282E-16, 3.000000000000000000 ) ) ;
#34 = FACE_OUTER_BOUND ( 'NONE', #161, .T. ) ;
#35 = ADVANCED_FACE ( 'NONE', ( #77 ), #221, .F. ) ;
#36 = CARTESIAN_POINT ( 'NONE',  ( 0.000000000000000000, 0.000000000000000000, 3.000000000000000000 ) ) ;
#37 = PRODUCT_DEFINITION_SHAPE ( 'NONE', 'NONE',  #130 ) ;
#38 = CALENDAR_DATE ( 2023, 12, 2 ) ;
#39 = COORDINATED_UNIVERSAL_TIME_OFFSET ( 1, 0, .AHEAD. ) ;
#40 = CARTESIAN_POINT ( 'NONE',  ( 2.500000000000000000, 3.061616997868383141E-16, 3.000000000000000000 ) ) ;
#41 = FACE_OUTER_BOUND ( 'NONE', #5, .T. ) ;
#42 = ORIENTED_EDGE ( 'NONE', *, *, #46, .T. ) ;
#43 = APPROVAL_PERSON_ORGANIZATION ( #200, #137, #86 ) ;
#44 = ORIENTED_EDGE ( 'NONE', *, *, #188, .F. ) ;
#45 = CC_DESIGN_PERSON_AND_ORGANIZATION_ASSIGNMENT ( #100, #176, ( #66 ) ) ;
#46 = EDGE_CURVE ( 'NONE', #218, #25, #99, .T. ) ;
#47 = PRODUCT_RELATED_PRODUCT_CATEGORY ( 'detail', '', ( #193 ) ) ;
#48 = AXIS2_PLACEMENT_3D ( 'NONE', #81, #251, #152 ) ;
#49 = CIRCLE ( 'NONE', #157, 5.000000000000000000 ) ;
#50 = CARTESIAN_POINT ( 'NONE',  ( 0.000000000000000000, 0.000000000000000000, 315.0000000000000000 ) ) ;
#51 = DIRECTION ( 'NONE',  ( 0.000000000000000000, 0.000000000000000000, 1.000000000000000000 ) ) ;
#52 = CARTESIAN_POINT ( 'NONE',  ( 0.000000000000000000, 0.000000000000000000, 3.000000000000000000 ) ) ;
#53 = AXIS2_PLACEMENT_3D ( 'NONE', #154, #189, #12 ) ;
#54 = CARTESIAN_POINT ( 'NONE',  ( 0.000000000000000000, 0.000000000000000000, 0.000000000000000000 ) ) ;
#55 = DIRECTION ( 'NONE',  ( -0.000000000000000000, -0.000000000000000000, -1.000000000000000000 ) ) ;
#56 = CARTESIAN_POINT ( 'NONE',  ( 0.000000000000000000, 0.000000000000000000, 0.000000000000000000 ) ) ;
#57 = CARTESIAN_POINT ( 'NONE',  ( 0.000000000000000000, 0.000000000000000000, 3.000000000000000000 ) ) ;
#58 = APPROVAL ( #194, 'NEURÈENÝ' ) ;
#59 =( GEOMETRIC_REPRESENTATION_CONTEXT ( 3 ) GLOBAL_UNCERTAINTY_ASSIGNED_CONTEXT ( ( #224 ) ) GLOBAL_UNIT_ASSIGNED_CONTEXT ( ( #63, #254, #121 ) ) REPRESENTATION_CONTEXT ( 'NONE', 'WORKASPACE' ) );
#60 = DESIGN_CONTEXT ( 'detailed design', #134, 'design' ) ;
#61 = DIRECTION ( 'NONE',  ( 0.000000000000000000, 0.000000000000000000, 1.000000000000000000 ) ) ;
#62 = EDGE_CURVE ( 'NONE', #68, #107, #74, .T. ) ;
#63 =( LENGTH_UNIT ( ) NAMED_UNIT ( * ) SI_UNIT ( .MILLI., .METRE. ) );
#64 = AXIS2_PLACEMENT_3D ( 'NONE', #52, #91, #97 ) ;
#65 = APPROVAL_ROLE ( '' ) ;
#66 = PRODUCT_DEFINITION_FORMATION_WITH_SPECIFIED_SOURCE ( 'LIBOVOLNÝ', '', #193, .NOT_KNOWN. ) ;
#67 = CARTESIAN_POINT ( 'NONE',  ( 0.000000000000000000, 0.000000000000000000, 3.000000000000000000 ) ) ;
#68 = VERTEX_POINT ( 'NONE', #115 ) ;
#69 = ORIENTED_EDGE ( 'NONE', *, *, #253, .T. ) ;
#70 = DATE_TIME_ROLE ( 'classification_date' ) ;
#71 = FACE_OUTER_BOUND ( 'NONE', #141, .T. ) ;
#72 = ORIENTED_EDGE ( 'NONE', *, *, #18, .F. ) ;
#73 = EDGE_CURVE ( 'NONE', #218, #199, #169, .T. ) ;
#74 = LINE ( 'NONE', #33, #32 ) ;
#75 = AXIS2_PLACEMENT_3D ( 'NONE', #50, #250, #248 ) ;
#76 = LOCAL_TIME ( 13, 30, 30.00000000000000000, #90 ) ;
#77 = FACE_OUTER_BOUND ( 'NONE', #216, .T. ) ;
#78 = DIRECTION ( 'NONE',  ( 0.000000000000000000, 0.000000000000000000, 1.000000000000000000 ) ) ;
#79 = CARTESIAN_POINT ( 'NONE',  ( 0.000000000000000000, 0.000000000000000000, 0.000000000000000000 ) ) ;
#80 = AXIS2_PLACEMENT_3D ( 'NONE', #67, #109, #182 ) ;
#81 = CARTESIAN_POINT ( 'NONE',  ( 0.000000000000000000, 0.000000000000000000, 315.0000000000000000 ) ) ;
#82 = CALENDAR_DATE ( 2023, 12, 2 ) ;
#83 = DATE_TIME_ROLE ( 'creation_date' ) ;
#84 = APPLICATION_PROTOCOL_DEFINITION ( 'international standard', 'config_control_design', 1994, #87 ) ;
#85 = PERSON_AND_ORGANIZATION ( #147, #132 ) ;
#86 = APPROVAL_ROLE ( '' ) ;
#87 = APPLICATION_CONTEXT ( 'configuration controlled 3d designs of mechanical parts and assemblies' ) ;
#88 = ORIENTED_EDGE ( 'NONE', *, *, #155, .F. ) ;
#89 = CIRCLE ( 'NONE', #10, 5.000000000000000000 ) ;
#90 = COORDINATED_UNIVERSAL_TIME_OFFSET ( 1, 0, .AHEAD. ) ;
#91 = DIRECTION ( 'NONE',  ( 0.000000000000000000, 0.000000000000000000, 1.000000000000000000 ) ) ;
#92 = CARTESIAN_POINT ( 'NONE',  ( -5.000000000000000000, 0.000000000000000000, 3.000000000000000000 ) ) ;
#93 = CIRCLE ( 'NONE', #185, 5.000000000000000000 ) ;
#94 = DIRECTION ( 'NONE',  ( 0.000000000000000000, 0.000000000000000000, 1.000000000000000000 ) ) ;
#95 = ADVANCED_FACE ( 'NONE', ( #226, #186 ), #170, .T. ) ;
#96 = EDGE_CURVE ( 'NONE', #25, #218, #3, .T. ) ;
#97 = DIRECTION ( 'NONE',  ( 1.000000000000000000, 0.000000000000000000, 0.000000000000000000 ) ) ;
#98 = LINE ( 'NONE', #252, #238 ) ;
#99 = CIRCLE ( 'NONE', #203, 2.500000000000000000 ) ;
#100 = PERSON_AND_ORGANIZATION ( #147, #132 ) ;
#101 = APPROVAL_DATE_TIME ( #192, #58 ) ;
#102 = SHAPE_DEFINITION_REPRESENTATION ( #37, #228 ) ;
#103 = PERSON_AND_ORGANIZATION_ROLE ( 'design_supplier' ) ;
#104 = EDGE_LOOP ( 'NONE', ( #88, #162 ) ) ;
#105 = CIRCLE ( 'NONE', #211, 5.000000000000000000 ) ;
#106 = CC_DESIGN_DATE_AND_TIME_ASSIGNMENT ( #255, #83, ( #130 ) ) ;
#107 = VERTEX_POINT ( 'NONE', #149 ) ;
#108 = ORIENTED_EDGE ( 'NONE', *, *, #246, .F. ) ;
#109 = DIRECTION ( 'NONE',  ( -0.000000000000000000, -0.000000000000000000, -1.000000000000000000 ) ) ;
#110 = EDGE_LOOP ( 'NONE', ( #197, #123, #244, #164 ) ) ;
#111 = DIRECTION ( 'NONE',  ( -0.000000000000000000, -0.000000000000000000, -1.000000000000000000 ) ) ;
#112 = DIRECTION ( 'NONE',  ( 0.000000000000000000, 0.000000000000000000, 1.000000000000000000 ) ) ;
#113 = VECTOR ( 'NONE', #207, 1000.000000000000000 ) ;
#114 = AXIS2_PLACEMENT_3D ( 'NONE', #234, #191, #15 ) ;
#115 = CARTESIAN_POINT ( 'NONE',  ( 5.000000000000000000, 6.123233995736766282E-16, 3.000000000000000000 ) ) ;
#116 = CARTESIAN_POINT ( 'NONE',  ( 2.500000000000000000, 3.061616997868383141E-16, 315.0000000000000000 ) ) ;
#117 = CARTESIAN_POINT ( 'NONE',  ( 0.000000000000000000, 0.000000000000000000, 3.000000000000000000 ) ) ;
#118 = AXIS2_PLACEMENT_3D ( 'NONE', #173, #135, #138 ) ;
#119 = DATE_AND_TIME ( #82, #175 ) ;
#120 = CALENDAR_DATE ( 2023, 12, 2 ) ;
#121 =( NAMED_UNIT ( * ) SI_UNIT ( $, .STERADIAN. ) SOLID_ANGLE_UNIT ( ) );
#122 = ORIENTED_EDGE ( 'NONE', *, *, #165, .F. ) ;
#123 = ORIENTED_EDGE ( 'NONE', *, *, #96, .F. ) ;
#124 = ORIENTED_EDGE ( 'NONE', *, *, #62, .F. ) ;
#125 = MANIFOLD_SOLID_BREP ( 'Pøidat vysunutím3', #163 ) ;
#126 = ORIENTED_EDGE ( 'NONE', *, *, #96, .T. ) ;
#127 = LOCAL_TIME ( 13, 30, 30.00000000000000000, #139 ) ;
#128 = DIRECTION ( 'NONE',  ( 1.000000000000000000, 0.000000000000000000, -0.000000000000000000 ) ) ;
#129 = FACE_OUTER_BOUND ( 'NONE', #110, .T. ) ;
#130 = PRODUCT_DEFINITION ( 'NEZNÁMÝ', '', #66, #60 ) ;
#131 = FACE_OUTER_BOUND ( 'NONE', #24, .T. ) ;
#132 = ORGANIZATION ( 'NEURÈENÝ', 'NEURÈENÝ', '' ) ;
#133 = PERSON_AND_ORGANIZATION ( #147, #132 ) ;
#134 = APPLICATION_CONTEXT ( 'configuration controlled 3d designs of mechanical parts and assemblies' ) ;
#135 = DIRECTION ( 'NONE',  ( 0.000000000000000000, 0.000000000000000000, 1.000000000000000000 ) ) ;
#136 = CYLINDRICAL_SURFACE ( 'NONE', #114, 2.500000000000000000 ) ;
#137 = APPROVAL ( #23, 'NEURÈENÝ' ) ;
#138 = DIRECTION ( 'NONE',  ( 1.000000000000000000, 0.000000000000000000, 0.000000000000000000 ) ) ;
#139 = COORDINATED_UNIVERSAL_TIME_OFFSET ( 1, 0, .AHEAD. ) ;
#140 = ADVANCED_FACE ( 'NONE', ( #129 ), #11, .T. ) ;
#141 = EDGE_LOOP ( 'NONE', ( #124, #108, #177, #69 ) ) ;
#142 = VERTEX_POINT ( 'NONE', #92 ) ;
#143 = VERTEX_POINT ( 'NONE', #205 ) ;
#144 = APPROVAL_PERSON_ORGANIZATION ( #85, #21, #65 ) ;
#145 = CYLINDRICAL_SURFACE ( 'NONE', #80, 5.000000000000000000 ) ;
#146 = ORIENTED_EDGE ( 'NONE', *, *, #18, .T. ) ;
#147 = PERSON ( 'NEURÈENÝ', 'NEURÈENÝ', 'NEURÈENÝ', ('NEURÈENÝ'), ('NEURÈENÝ'), ('NEURÈENÝ') ) ;
#148 = CIRCLE ( 'NONE', #210, 2.500000000000000000 ) ;
#149 = CARTESIAN_POINT ( 'NONE',  ( 5.000000000000000000, 6.123233995736766282E-16, 0.000000000000000000 ) ) ;
#150 = DIRECTION ( 'NONE',  ( 1.000000000000000000, 0.000000000000000000, 0.000000000000000000 ) ) ;
#151 = DIRECTION ( 'NONE',  ( 1.000000000000000000, 0.000000000000000000, 0.000000000000000000 ) ) ;
#152 = DIRECTION ( 'NONE',  ( 1.000000000000000000, 0.000000000000000000, 0.000000000000000000 ) ) ;
#153 = CC_DESIGN_APPROVAL ( #58, ( #66 ) ) ;
#154 = CARTESIAN_POINT ( 'NONE',  ( 0.000000000000000000, 0.000000000000000000, 3.000000000000000000 ) ) ;
#155 = EDGE_CURVE ( 'NONE', #143, #199, #148, .T. ) ;
#156 = APPROVAL_DATE_TIME ( #119, #21 ) ;
#157 = AXIS2_PLACEMENT_3D ( 'NONE', #56, #61, #231 ) ;
#158 = MECHANICAL_CONTEXT ( 'NONE', #87, 'mechanical' ) ;
#159 = PERSON_AND_ORGANIZATION ( #147, #132 ) ;
#160 = AXIS2_PLACEMENT_3D ( 'NONE', #187, #94, #8 ) ;
#161 = EDGE_LOOP ( 'NONE', ( #72, #247, #180, #217 ) ) ;
#162 = ORIENTED_EDGE ( 'NONE', *, *, #30, .F. ) ;
#163 = CLOSED_SHELL ( 'NONE', ( #196, #179, #1, #95, #35, #140, #195 ) ) ;
#164 = ORIENTED_EDGE ( 'NONE', *, *, #155, .T. ) ;
#165 = EDGE_CURVE ( 'NONE', #107, #27, #89, .T. ) ;
#166 = DIRECTION ( 'NONE',  ( 0.000000000000000000, 0.000000000000000000, 1.000000000000000000 ) ) ;
#167 = CC_DESIGN_PERSON_AND_ORGANIZATION_ASSIGNMENT ( #159, #215, ( #130 ) ) ;
#168 = DIRECTION ( 'NONE',  ( 1.000000000000000000, 0.000000000000000000, -0.000000000000000000 ) ) ;
#169 = LINE ( 'NONE', #116, #14 ) ;
#170 = PLANE ( 'NONE',  #160 ) ;
#171 = DIRECTION ( 'NONE',  ( 1.000000000000000000, 0.000000000000000000, 0.000000000000000000 ) ) ;
#172 = CC_DESIGN_APPROVAL ( #137, ( #204 ) ) ;
#173 = CARTESIAN_POINT ( 'NONE',  ( 0.000000000000000000, 0.000000000000000000, 0.000000000000000000 ) ) ;
#174 = PERSON_AND_ORGANIZATION_ROLE ( 'design_owner' ) ;
#175 = LOCAL_TIME ( 13, 30, 30.00000000000000000, #39 ) ;
#176 = PERSON_AND_ORGANIZATION_ROLE ( 'creator' ) ;
#177 = ORIENTED_EDGE ( 'NONE', *, *, #13, .T. ) ;
#178 = SECURITY_CLASSIFICATION_LEVEL ( 'unclassified' ) ;
#179 = ADVANCED_FACE ( 'NONE', ( #34 ), #184, .T. ) ;
#180 = ORIENTED_EDGE ( 'NONE', *, *, #165, .T. ) ;
#181 = CIRCLE ( 'NONE', #64, 2.500000000000000000 ) ;
#182 = DIRECTION ( 'NONE',  ( -1.000000000000000000, 0.000000000000000000, 0.000000000000000000 ) ) ;
#183 = CC_DESIGN_APPROVAL ( #21, ( #130 ) ) ;
#184 = CYLINDRICAL_SURFACE ( 'NONE', #53, 5.000000000000000000 ) ;
#185 = AXIS2_PLACEMENT_3D ( 'NONE', #117, #206, #150 ) ;
#186 = FACE_OUTER_BOUND ( 'NONE', #7, .T. ) ;
#187 = CARTESIAN_POINT ( 'NONE',  ( 0.000000000000000000, 0.000000000000000000, 3.000000000000000000 ) ) ;
#188 = EDGE_CURVE ( 'NONE', #25, #143, #98, .T. ) ;
#189 = DIRECTION ( 'NONE',  ( -0.000000000000000000, -0.000000000000000000, -1.000000000000000000 ) ) ;
#190 = PLANE ( 'NONE',  #233 ) ;
#191 = DIRECTION ( 'NONE',  ( -0.000000000000000000, -0.000000000000000000, -1.000000000000000000 ) ) ;
#192 = DATE_AND_TIME ( #38, #222 ) ;
#193 = PRODUCT ( 'f5c5', 'f5c5', '', ( #158 ) ) ;
#194 = APPROVAL_STATUS ( 'not_yet_approved' ) ;
#195 = ADVANCED_FACE ( 'NONE', ( #131 ), #190, .T. ) ;
#196 = ADVANCED_FACE ( 'NONE', ( #41 ), #136, .T. ) ;
#197 = ORIENTED_EDGE ( 'NONE', *, *, #73, .F. ) ;
#198 = APPROVAL_PERSON_ORGANIZATION ( #232, #58, #19 ) ;
#199 = VERTEX_POINT ( 'NONE', #40 ) ;
#200 = PERSON_AND_ORGANIZATION ( #147, #132 ) ;
#201 = ORIENTED_EDGE ( 'NONE', *, *, #246, .T. ) ;
#202 = ORIENTED_EDGE ( 'NONE', *, *, #73, .T. ) ;
#203 = AXIS2_PLACEMENT_3D ( 'NONE', #31, #112, #230 ) ;
#204 = SECURITY_CLASSIFICATION ( '', '', #178 ) ;
#205 = CARTESIAN_POINT ( 'NONE',  ( -2.500000000000000000, 0.000000000000000000, 3.000000000000000000 ) ) ;
#206 = DIRECTION ( 'NONE',  ( 0.000000000000000000, 0.000000000000000000, 1.000000000000000000 ) ) ;
#207 = DIRECTION ( 'NONE',  ( -0.000000000000000000, -0.000000000000000000, -1.000000000000000000 ) ) ;
#208 = DIRECTION ( 'NONE',  ( 0.000000000000000000, 0.000000000000000000, 1.000000000000000000 ) ) ;
#209 = CARTESIAN_POINT ( 'NONE',  ( 0.000000000000000000, 0.000000000000000000, 315.0000000000000000 ) ) ;
#210 = AXIS2_PLACEMENT_3D ( 'NONE', #36, #78, #151 ) ;
#211 = AXIS2_PLACEMENT_3D ( 'NONE', #57, #214, #213 ) ;
#212 = COORDINATED_UNIVERSAL_TIME_OFFSET ( 1, 0, .AHEAD. ) ;
#213 = DIRECTION ( 'NONE',  ( 1.000000000000000000, 0.000000000000000000, 0.000000000000000000 ) ) ;
#214 = DIRECTION ( 'NONE',  ( 0.000000000000000000, 0.000000000000000000, 1.000000000000000000 ) ) ;
#215 = PERSON_AND_ORGANIZATION_ROLE ( 'creator' ) ;
#216 = EDGE_LOOP ( 'NONE', ( #6, #122 ) ) ;
#217 = ORIENTED_EDGE ( 'NONE', *, *, #13, .F. ) ;
#218 = VERTEX_POINT ( 'NONE', #2 ) ;
#219 = PERSON_AND_ORGANIZATION ( #147, #132 ) ;
#220 = APPROVAL_DATE_TIME ( #22, #137 ) ;
#221 = PLANE ( 'NONE',  #237 ) ;
#222 = LOCAL_TIME ( 13, 30, 30.00000000000000000, #212 ) ;
#223 = LINE ( 'NONE', #225, #113 ) ;
#224 = UNCERTAINTY_MEASURE_WITH_UNIT (LENGTH_MEASURE( 1.000000000000000082E-05 ), #63, 'distance_accuracy_value', 'NONE');
#225 = CARTESIAN_POINT ( 'NONE',  ( -5.000000000000000000, 0.000000000000000000, 3.000000000000000000 ) ) ;
#226 = FACE_BOUND ( 'NONE', #104, .T. ) ;
#227 = CC_DESIGN_SECURITY_CLASSIFICATION ( #204, ( #66 ) ) ;
#228 = ADVANCED_BREP_SHAPE_REPRESENTATION ( 'f5c5', ( #125, #118 ), #59 ) ;
#229 = CC_DESIGN_DATE_AND_TIME_ASSIGNMENT ( #4, #70, ( #204 ) ) ;
#230 = DIRECTION ( 'NONE',  ( 1.000000000000000000, 0.000000000000000000, 0.000000000000000000 ) ) ;
#231 = DIRECTION ( 'NONE',  ( 1.000000000000000000, 0.000000000000000000, 0.000000000000000000 ) ) ;
#232 = PERSON_AND_ORGANIZATION ( #147, #132 ) ;
#233 = AXIS2_PLACEMENT_3D ( 'NONE', #209, #166, #168 ) ;
#234 = CARTESIAN_POINT ( 'NONE',  ( 0.000000000000000000, 0.000000000000000000, 315.0000000000000000 ) ) ;
#235 = PERSON_AND_ORGANIZATION ( #147, #132 ) ;
#236 = APPROVAL_STATUS ( 'not_yet_approved' ) ;
#237 = AXIS2_PLACEMENT_3D ( 'NONE', #54, #51, #128 ) ;
#238 = VECTOR ( 'NONE', #55, 1000.000000000000000 ) ;
#239 = ORIENTED_EDGE ( 'NONE', *, *, #30, .T. ) ;
#240 = CALENDAR_DATE ( 2023, 12, 2 ) ;
#241 = CC_DESIGN_PERSON_AND_ORGANIZATION_ASSIGNMENT ( #235, #103, ( #66 ) ) ;
#242 = CALENDAR_DATE ( 2023, 12, 2 ) ;
#243 = PERSON_AND_ORGANIZATION_ROLE ( 'classification_officer' ) ;
#244 = ORIENTED_EDGE ( 'NONE', *, *, #188, .T. ) ;
#245 = CC_DESIGN_PERSON_AND_ORGANIZATION_ASSIGNMENT ( #133, #174, ( #193 ) ) ;
#246 = EDGE_CURVE ( 'NONE', #142, #68, #105, .T. ) ;
#247 = ORIENTED_EDGE ( 'NONE', *, *, #62, .T. ) ;
#248 = DIRECTION ( 'NONE',  ( -1.000000000000000000, 0.000000000000000000, 0.000000000000000000 ) ) ;
#249 = DIRECTION ( 'NONE',  ( -0.000000000000000000, -0.000000000000000000, -1.000000000000000000 ) ) ;
#250 = DIRECTION ( 'NONE',  ( -0.000000000000000000, -0.000000000000000000, -1.000000000000000000 ) ) ;
#251 = DIRECTION ( 'NONE',  ( 0.000000000000000000, 0.000000000000000000, 1.000000000000000000 ) ) ;
#252 = CARTESIAN_POINT ( 'NONE',  ( -2.500000000000000000, 0.000000000000000000, 315.0000000000000000 ) ) ;
#253 = EDGE_CURVE ( 'NONE', #27, #107, #49, .T. ) ;
#254 =( NAMED_UNIT ( * ) PLANE_ANGLE_UNIT ( ) SI_UNIT ( $, .RADIAN. ) );
#255 = DATE_AND_TIME ( #120, #20 ) ;
ENDSEC;
END-ISO-10303-21;
