ISO-10303-21;
HEADER;
FILE_DESCRIPTION (( 'STEP AP203' ),
    '1' );
FILE_NAME ('2e91.STEP',
    '2023-02-12T12:25:46',
    ( '' ),
    ( '' ),
    'SwSTEP 2.0',
    'SolidWorks 2019',
    '' );
FILE_SCHEMA (( 'CONFIG_CONTROL_DESIGN' ));
ENDSEC;

DATA;
#1 = CIRCLE ( 'NONE', #17, 2.750000000000000000 ) ;
#2 = CIRCLE ( 'NONE', #97, 2.750000000000000000 ) ;
#3 = ORIENTED_EDGE ( 'NONE', *, *, #24, .T. ) ;
#4 = DIRECTION ( 'NONE',  ( -1.000000000000000000, 0.000000000000000000, 0.000000000000000000 ) ) ;
#5 = APPROVAL ( #121, 'NEURÈENÝ' ) ;
#6 = AXIS2_PLACEMENT_3D ( 'NONE', #245, #141, #49 ) ;
#7 = DIRECTION ( 'NONE',  ( -0.000000000000000000, -0.000000000000000000, -1.000000000000000000 ) ) ;
#8 = DIRECTION ( 'NONE',  ( -0.000000000000000000, -0.000000000000000000, -1.000000000000000000 ) ) ;
#9 = VERTEX_POINT ( 'NONE', #60 ) ;
#10 = PRODUCT ( '2e91', '2e91', '', ( #147 ) ) ;
#11 = COORDINATED_UNIVERSAL_TIME_OFFSET ( 1, 0, .AHEAD. ) ;
#12 = ORIENTED_EDGE ( 'NONE', *, *, #56, .F. ) ;
#13 = DIRECTION ( 'NONE',  ( 0.000000000000000000, 0.000000000000000000, 1.000000000000000000 ) ) ;
#14 = APPROVAL_DATE_TIME ( #29, #148 ) ;
#15 = DIRECTION ( 'NONE',  ( -0.000000000000000000, -0.000000000000000000, -1.000000000000000000 ) ) ;
#16 = DIRECTION ( 'NONE',  ( 0.000000000000000000, 0.000000000000000000, 1.000000000000000000 ) ) ;
#17 = AXIS2_PLACEMENT_3D ( 'NONE', #51, #124, #201 ) ;
#18 = AXIS2_PLACEMENT_3D ( 'NONE', #86, #16, #158 ) ;
#19 = CC_DESIGN_PERSON_AND_ORGANIZATION_ASSIGNMENT ( #72, #145, ( #10 ) ) ;
#20 = VERTEX_POINT ( 'NONE', #131 ) ;
#21 = AXIS2_PLACEMENT_3D ( 'NONE', #192, #116, #138 ) ;
#22 = CARTESIAN_POINT ( 'NONE',  ( 0.000000000000000000, 0.000000000000000000, 3.000000000000000000 ) ) ;
#23 = FACE_OUTER_BOUND ( 'NONE', #102, .T. ) ;
#24 = EDGE_CURVE ( 'NONE', #65, #219, #75, .T. ) ;
#25 = FACE_OUTER_BOUND ( 'NONE', #98, .T. ) ;
#26 = FACE_OUTER_BOUND ( 'NONE', #80, .T. ) ;
#27 = CC_DESIGN_SECURITY_CLASSIFICATION ( #101, ( #58 ) ) ;
#28 = ORIENTED_EDGE ( 'NONE', *, *, #197, .T. ) ;
#29 = DATE_AND_TIME ( #206, #92 ) ;
#30 = DIRECTION ( 'NONE',  ( 0.000000000000000000, 0.000000000000000000, 1.000000000000000000 ) ) ;
#31 = ORIENTED_EDGE ( 'NONE', *, *, #150, .T. ) ;
#32 = APPROVAL_DATE_TIME ( #203, #5 ) ;
#33 = DIRECTION ( 'NONE',  ( 1.000000000000000000, 0.000000000000000000, 0.000000000000000000 ) ) ;
#34 = FACE_OUTER_BOUND ( 'NONE', #40, .T. ) ;
#35 = PERSON_AND_ORGANIZATION ( #76, #232 ) ;
#36 = APPROVAL_STATUS ( 'not_yet_approved' ) ;
#37 = DATE_AND_TIME ( #210, #167 ) ;
#38 = LOCAL_TIME ( 13, 25, 46.00000000000000000, #249 ) ;
#39 = EDGE_CURVE ( 'NONE', #65, #156, #213, .T. ) ;
#40 = EDGE_LOOP ( 'NONE', ( #59, #95, #122, #200 ) ) ;
#41 = CIRCLE ( 'NONE', #129, 5.000000000000000000 ) ;
#42 = CARTESIAN_POINT ( 'NONE',  ( 0.000000000000000000, 0.000000000000000000, 125.0000000000000000 ) ) ;
#43 = DIRECTION ( 'NONE',  ( 1.000000000000000000, 0.000000000000000000, 0.000000000000000000 ) ) ;
#44 = ORIENTED_EDGE ( 'NONE', *, *, #113, .T. ) ;
#45 = LOCAL_TIME ( 13, 25, 46.00000000000000000, #11 ) ;
#46 = DATE_TIME_ROLE ( 'classification_date' ) ;
#47 = CALENDAR_DATE ( 2023, 12, 2 ) ;
#48 = CARTESIAN_POINT ( 'NONE',  ( 0.000000000000000000, 0.000000000000000000, 3.000000000000000000 ) ) ;
#49 = DIRECTION ( 'NONE',  ( 1.000000000000000000, 0.000000000000000000, 0.000000000000000000 ) ) ;
#50 = APPROVAL_ROLE ( '' ) ;
#51 = CARTESIAN_POINT ( 'NONE',  ( 0.000000000000000000, 0.000000000000000000, 3.000000000000000000 ) ) ;
#52 = CC_DESIGN_PERSON_AND_ORGANIZATION_ASSIGNMENT ( #55, #127, ( #101 ) ) ;
#53 = FACE_BOUND ( 'NONE', #68, .T. ) ;
#54 = CALENDAR_DATE ( 2023, 12, 2 ) ;
#55 = PERSON_AND_ORGANIZATION ( #76, #232 ) ;
#56 = EDGE_CURVE ( 'NONE', #156, #9, #41, .T. ) ;
#57 = VECTOR ( 'NONE', #165, 1000.000000000000000 ) ;
#58 = PRODUCT_DEFINITION_FORMATION_WITH_SPECIFIED_SOURCE ( 'LIBOVOLNÝ', '', #10, .NOT_KNOWN. ) ;
#59 = ORIENTED_EDGE ( 'NONE', *, *, #24, .F. ) ;
#60 = CARTESIAN_POINT ( 'NONE',  ( -5.000000000000000000, 0.000000000000000000, 0.000000000000000000 ) ) ;
#61 = ADVANCED_FACE ( 'NONE', ( #53, #205 ), #222, .T. ) ;
#62 = DIRECTION ( 'NONE',  ( 0.000000000000000000, 0.000000000000000000, 1.000000000000000000 ) ) ;
#63 = CYLINDRICAL_SURFACE ( 'NONE', #84, 2.750000000000000000 ) ;
#64 = EDGE_CURVE ( 'NONE', #77, #153, #227, .T. ) ;
#65 = VERTEX_POINT ( 'NONE', #184 ) ;
#66 = DIRECTION ( 'NONE',  ( 0.000000000000000000, 0.000000000000000000, 1.000000000000000000 ) ) ;
#67 = DIRECTION ( 'NONE',  ( 1.000000000000000000, 0.000000000000000000, -0.000000000000000000 ) ) ;
#68 = EDGE_LOOP ( 'NONE', ( #139, #202 ) ) ;
#69 = FACE_OUTER_BOUND ( 'NONE', #178, .T. ) ;
#70 = ADVANCED_FACE ( 'NONE', ( #34 ), #146, .T. ) ;
#71 = CARTESIAN_POINT ( 'NONE',  ( -2.750000000000000000, 0.000000000000000000, 125.0000000000000000 ) ) ;
#72 = PERSON_AND_ORGANIZATION ( #76, #232 ) ;
#73 = DIRECTION ( 'NONE',  ( 1.000000000000000000, 0.000000000000000000, 0.000000000000000000 ) ) ;
#74 = VECTOR ( 'NONE', #15, 1000.000000000000000 ) ;
#75 = CIRCLE ( 'NONE', #243, 5.000000000000000000 ) ;
#76 = PERSON ( 'NEURÈENÝ', 'NEURÈENÝ', 'NEURÈENÝ', ('NEURÈENÝ'), ('NEURÈENÝ'), ('NEURÈENÝ') ) ;
#77 = VERTEX_POINT ( 'NONE', #71 ) ;
#78 = CARTESIAN_POINT ( 'NONE',  ( -5.000000000000000000, 0.000000000000000000, 3.000000000000000000 ) ) ;
#79 = CC_DESIGN_PERSON_AND_ORGANIZATION_ASSIGNMENT ( #223, #226, ( #221 ) ) ;
#80 = EDGE_LOOP ( 'NONE', ( #136, #242, #81, #211 ) ) ;
#81 = ORIENTED_EDGE ( 'NONE', *, *, #154, .T. ) ;
#82 = APPLICATION_PROTOCOL_DEFINITION ( 'international standard', 'config_control_design', 1994, #190 ) ;
#83 = CARTESIAN_POINT ( 'NONE',  ( 5.000000000000000000, 6.123233995736766282E-16, 0.000000000000000000 ) ) ;
#84 = AXIS2_PLACEMENT_3D ( 'NONE', #100, #160, #177 ) ;
#85 = AXIS2_PLACEMENT_3D ( 'NONE', #215, #241, #67 ) ;
#86 = CARTESIAN_POINT ( 'NONE',  ( 0.000000000000000000, 0.000000000000000000, 0.000000000000000000 ) ) ;
#87 = CARTESIAN_POINT ( 'NONE',  ( 0.000000000000000000, 0.000000000000000000, 3.000000000000000000 ) ) ;
#88 = DIRECTION ( 'NONE',  ( 0.000000000000000000, 0.000000000000000000, 1.000000000000000000 ) ) ;
#89 = SECURITY_CLASSIFICATION_LEVEL ( 'unclassified' ) ;
#90 = APPROVAL_PERSON_ORGANIZATION ( #123, #5, #104 ) ;
#91 = CIRCLE ( 'NONE', #118, 5.000000000000000000 ) ;
#92 = LOCAL_TIME ( 13, 25, 46.00000000000000000, #228 ) ;
#93 =( NAMED_UNIT ( * ) SI_UNIT ( $, .STERADIAN. ) SOLID_ANGLE_UNIT ( ) );
#94 = EDGE_CURVE ( 'NONE', #20, #180, #144, .T. ) ;
#95 = ORIENTED_EDGE ( 'NONE', *, *, #39, .T. ) ;
#96 = AXIS2_PLACEMENT_3D ( 'NONE', #42, #99, #4 ) ;
#97 = AXIS2_PLACEMENT_3D ( 'NONE', #174, #193, #43 ) ;
#98 = EDGE_LOOP ( 'NONE', ( #236, #235, #107, #44 ) ) ;
#99 = DIRECTION ( 'NONE',  ( -0.000000000000000000, -0.000000000000000000, -1.000000000000000000 ) ) ;
#100 = CARTESIAN_POINT ( 'NONE',  ( 0.000000000000000000, 0.000000000000000000, 125.0000000000000000 ) ) ;
#101 = SECURITY_CLASSIFICATION ( '', '', #89 ) ;
#102 = EDGE_LOOP ( 'NONE', ( #217, #233, #31, #114 ) ) ;
#103 = DESIGN_CONTEXT ( 'detailed design', #216, 'design' ) ;
#104 = APPROVAL_ROLE ( '' ) ;
#105 = LINE ( 'NONE', #186, #183 ) ;
#106 = CC_DESIGN_PERSON_AND_ORGANIZATION_ASSIGNMENT ( #163, #111, ( #58 ) ) ;
#107 = ORIENTED_EDGE ( 'NONE', *, *, #64, .T. ) ;
#108 = SHAPE_DEFINITION_REPRESENTATION ( #238, #234 ) ;
#109 = DATE_AND_TIME ( #246, #45 ) ;
#110 = CARTESIAN_POINT ( 'NONE',  ( 0.000000000000000000, 0.000000000000000000, 3.000000000000000000 ) ) ;
#111 = PERSON_AND_ORGANIZATION_ROLE ( 'design_supplier' ) ;
#112 = EDGE_CURVE ( 'NONE', #9, #156, #91, .T. ) ;
#113 = EDGE_CURVE ( 'NONE', #153, #180, #1, .T. ) ;
#114 = ORIENTED_EDGE ( 'NONE', *, *, #64, .F. ) ;
#115 = EDGE_LOOP ( 'NONE', ( #240, #3 ) ) ;
#116 = DIRECTION ( 'NONE',  ( 0.000000000000000000, 0.000000000000000000, 1.000000000000000000 ) ) ;
#117 = CC_DESIGN_DATE_AND_TIME_ASSIGNMENT ( #37, #46, ( #101 ) ) ;
#118 = AXIS2_PLACEMENT_3D ( 'NONE', #175, #66, #155 ) ;
#119 = CARTESIAN_POINT ( 'NONE',  ( 2.750000000000000000, 3.367778697655220519E-16, 3.000000000000000000 ) ) ;
#120 = EDGE_LOOP ( 'NONE', ( #28, #169 ) ) ;
#121 = APPROVAL_STATUS ( 'not_yet_approved' ) ;
#122 = ORIENTED_EDGE ( 'NONE', *, *, #56, .T. ) ;
#123 = PERSON_AND_ORGANIZATION ( #76, #232 ) ;
#124 = DIRECTION ( 'NONE',  ( 0.000000000000000000, 0.000000000000000000, 1.000000000000000000 ) ) ;
#125 = DIRECTION ( 'NONE',  ( 1.000000000000000000, 0.000000000000000000, -0.000000000000000000 ) ) ;
#126 = DATE_AND_TIME ( #54, #38 ) ;
#127 = PERSON_AND_ORGANIZATION_ROLE ( 'classification_officer' ) ;
#128 = CC_DESIGN_APPROVAL ( #5, ( #101 ) ) ;
#129 = AXIS2_PLACEMENT_3D ( 'NONE', #162, #13, #73 ) ;
#130 = ORIENTED_EDGE ( 'NONE', *, *, #112, .F. ) ;
#131 = CARTESIAN_POINT ( 'NONE',  ( 2.750000000000000000, 3.367778697655220519E-16, 125.0000000000000000 ) ) ;
#132 = DIRECTION ( 'NONE',  ( 1.000000000000000000, 0.000000000000000000, 0.000000000000000000 ) ) ;
#133 = AXIS2_PLACEMENT_3D ( 'NONE', #224, #207, #250 ) ;
#134 = CARTESIAN_POINT ( 'NONE',  ( 0.000000000000000000, 0.000000000000000000, 3.000000000000000000 ) ) ;
#135 =( NAMED_UNIT ( * ) PLANE_ANGLE_UNIT ( ) SI_UNIT ( $, .RADIAN. ) );
#136 = ORIENTED_EDGE ( 'NONE', *, *, #39, .F. ) ;
#137 = CLOSED_SHELL ( 'NONE', ( #204, #70, #231, #61, #164, #239, #185 ) ) ;
#138 = DIRECTION ( 'NONE',  ( 1.000000000000000000, 0.000000000000000000, 0.000000000000000000 ) ) ;
#139 = ORIENTED_EDGE ( 'NONE', *, *, #113, .F. ) ;
#140 = DATE_TIME_ROLE ( 'creation_date' ) ;
#141 = DIRECTION ( 'NONE',  ( 0.000000000000000000, 0.000000000000000000, 1.000000000000000000 ) ) ;
#142 = PERSON_AND_ORGANIZATION ( #76, #232 ) ;
#143 = PLANE ( 'NONE',  #133 ) ;
#144 = LINE ( 'NONE', #225, #196 ) ;
#145 = PERSON_AND_ORGANIZATION_ROLE ( 'design_owner' ) ;
#146 = CYLINDRICAL_SURFACE ( 'NONE', #214, 5.000000000000000000 ) ;
#147 = MECHANICAL_CONTEXT ( 'NONE', #190, 'mechanical' ) ;
#148 = APPROVAL ( #36, 'NEURÈENÝ' ) ;
#149 = AXIS2_PLACEMENT_3D ( 'NONE', #87, #30, #33 ) ;
#150 = EDGE_CURVE ( 'NONE', #180, #153, #191, .T. ) ;
#151 = CC_DESIGN_APPROVAL ( #189, ( #221 ) ) ;
#152 =( LENGTH_UNIT ( ) NAMED_UNIT ( * ) SI_UNIT ( .MILLI., .METRE. ) );
#153 = VERTEX_POINT ( 'NONE', #161 ) ;
#154 = EDGE_CURVE ( 'NONE', #219, #9, #105, .T. ) ;
#155 = DIRECTION ( 'NONE',  ( 1.000000000000000000, 0.000000000000000000, 0.000000000000000000 ) ) ;
#156 = VERTEX_POINT ( 'NONE', #83 ) ;
#157 = UNCERTAINTY_MEASURE_WITH_UNIT (LENGTH_MEASURE( 1.000000000000000082E-05 ), #152, 'distance_accuracy_value', 'NONE');
#158 = DIRECTION ( 'NONE',  ( 1.000000000000000000, 0.000000000000000000, 0.000000000000000000 ) ) ;
#159 = AXIS2_PLACEMENT_3D ( 'NONE', #110, #88, #125 ) ;
#160 = DIRECTION ( 'NONE',  ( -0.000000000000000000, -0.000000000000000000, -1.000000000000000000 ) ) ;
#161 = CARTESIAN_POINT ( 'NONE',  ( -2.750000000000000000, 0.000000000000000000, 3.000000000000000000 ) ) ;
#162 = CARTESIAN_POINT ( 'NONE',  ( 0.000000000000000000, 0.000000000000000000, 0.000000000000000000 ) ) ;
#163 = PERSON_AND_ORGANIZATION ( #76, #232 ) ;
#164 = ADVANCED_FACE ( 'NONE', ( #69 ), #143, .F. ) ;
#165 = DIRECTION ( 'NONE',  ( -0.000000000000000000, -0.000000000000000000, -1.000000000000000000 ) ) ;
#166 = APPROVAL_DATE_TIME ( #109, #189 ) ;
#167 = LOCAL_TIME ( 13, 25, 46.00000000000000000, #253 ) ;
#168 =( GEOMETRIC_REPRESENTATION_CONTEXT ( 3 ) GLOBAL_UNCERTAINTY_ASSIGNED_CONTEXT ( ( #157 ) ) GLOBAL_UNIT_ASSIGNED_CONTEXT ( ( #152, #135, #93 ) ) REPRESENTATION_CONTEXT ( 'NONE', 'WORKASPACE' ) );
#169 = ORIENTED_EDGE ( 'NONE', *, *, #176, .T. ) ;
#170 = APPROVAL_PERSON_ORGANIZATION ( #142, #189, #209 ) ;
#171 = PRODUCT_RELATED_PRODUCT_CATEGORY ( 'detail', '', ( #10 ) ) ;
#172 = PLANE ( 'NONE',  #85 ) ;
#173 = CYLINDRICAL_SURFACE ( 'NONE', #212, 5.000000000000000000 ) ;
#174 = CARTESIAN_POINT ( 'NONE',  ( 0.000000000000000000, 0.000000000000000000, 125.0000000000000000 ) ) ;
#175 = CARTESIAN_POINT ( 'NONE',  ( 0.000000000000000000, 0.000000000000000000, 0.000000000000000000 ) ) ;
#176 = EDGE_CURVE ( 'NONE', #20, #77, #2, .T. ) ;
#177 = DIRECTION ( 'NONE',  ( -1.000000000000000000, 0.000000000000000000, 0.000000000000000000 ) ) ;
#178 = EDGE_LOOP ( 'NONE', ( #130, #12 ) ) ;
#179 = COORDINATED_UNIVERSAL_TIME_OFFSET ( 1, 0, .AHEAD. ) ;
#180 = VERTEX_POINT ( 'NONE', #119 ) ;
#181 = CIRCLE ( 'NONE', #6, 5.000000000000000000 ) ;
#182 = APPLICATION_PROTOCOL_DEFINITION ( 'international standard', 'config_control_design', 1994, #216 ) ;
#183 = VECTOR ( 'NONE', #247, 1000.000000000000000 ) ;
#184 = CARTESIAN_POINT ( 'NONE',  ( 5.000000000000000000, 6.123233995736766282E-16, 3.000000000000000000 ) ) ;
#185 = ADVANCED_FACE ( 'NONE', ( #199 ), #172, .T. ) ;
#186 = CARTESIAN_POINT ( 'NONE',  ( -5.000000000000000000, 0.000000000000000000, 3.000000000000000000 ) ) ;
#187 = CARTESIAN_POINT ( 'NONE',  ( -2.750000000000000000, 0.000000000000000000, 125.0000000000000000 ) ) ;
#188 = PERSON_AND_ORGANIZATION ( #76, #232 ) ;
#189 = APPROVAL ( #244, 'NEURÈENÝ' ) ;
#190 = APPLICATION_CONTEXT ( 'configuration controlled 3d designs of mechanical parts and assemblies' ) ;
#191 = CIRCLE ( 'NONE', #149, 2.750000000000000000 ) ;
#192 = CARTESIAN_POINT ( 'NONE',  ( 0.000000000000000000, 0.000000000000000000, 125.0000000000000000 ) ) ;
#193 = DIRECTION ( 'NONE',  ( 0.000000000000000000, 0.000000000000000000, 1.000000000000000000 ) ) ;
#194 = CC_DESIGN_APPROVAL ( #148, ( #58 ) ) ;
#195 = MANIFOLD_SOLID_BREP ( 'Pøidat vysunutím3', #137 ) ;
#196 = VECTOR ( 'NONE', #8, 1000.000000000000000 ) ;
#197 = EDGE_CURVE ( 'NONE', #77, #20, #230, .T. ) ;
#198 = APPROVAL_PERSON_ORGANIZATION ( #188, #148, #50 ) ;
#199 = FACE_OUTER_BOUND ( 'NONE', #120, .T. ) ;
#200 = ORIENTED_EDGE ( 'NONE', *, *, #154, .F. ) ;
#201 = DIRECTION ( 'NONE',  ( 1.000000000000000000, 0.000000000000000000, 0.000000000000000000 ) ) ;
#202 = ORIENTED_EDGE ( 'NONE', *, *, #150, .F. ) ;
#203 = DATE_AND_TIME ( #47, #252 ) ;
#204 = ADVANCED_FACE ( 'NONE', ( #23 ), #218, .T. ) ;
#205 = FACE_OUTER_BOUND ( 'NONE', #115, .T. ) ;
#206 = CALENDAR_DATE ( 2023, 12, 2 ) ;
#207 = DIRECTION ( 'NONE',  ( 0.000000000000000000, 0.000000000000000000, 1.000000000000000000 ) ) ;
#208 = DIRECTION ( 'NONE',  ( -1.000000000000000000, 0.000000000000000000, 0.000000000000000000 ) ) ;
#209 = APPROVAL_ROLE ( '' ) ;
#210 = CALENDAR_DATE ( 2023, 12, 2 ) ;
#211 = ORIENTED_EDGE ( 'NONE', *, *, #112, .T. ) ;
#212 = AXIS2_PLACEMENT_3D ( 'NONE', #134, #7, #237 ) ;
#213 = LINE ( 'NONE', #251, #74 ) ;
#214 = AXIS2_PLACEMENT_3D ( 'NONE', #48, #248, #208 ) ;
#215 = CARTESIAN_POINT ( 'NONE',  ( 0.000000000000000000, 0.000000000000000000, 125.0000000000000000 ) ) ;
#216 = APPLICATION_CONTEXT ( 'configuration controlled 3d designs of mechanical parts and assemblies' ) ;
#217 = ORIENTED_EDGE ( 'NONE', *, *, #176, .F. ) ;
#218 = CYLINDRICAL_SURFACE ( 'NONE', #96, 2.750000000000000000 ) ;
#219 = VERTEX_POINT ( 'NONE', #78 ) ;
#220 = PERSON_AND_ORGANIZATION_ROLE ( 'creator' ) ;
#221 = PRODUCT_DEFINITION ( 'NEZNÁMÝ', '', #58, #103 ) ;
#222 = PLANE ( 'NONE',  #159 ) ;
#223 = PERSON_AND_ORGANIZATION ( #76, #232 ) ;
#224 = CARTESIAN_POINT ( 'NONE',  ( 0.000000000000000000, 0.000000000000000000, 0.000000000000000000 ) ) ;
#225 = CARTESIAN_POINT ( 'NONE',  ( 2.750000000000000000, 3.367778697655220519E-16, 125.0000000000000000 ) ) ;
#226 = PERSON_AND_ORGANIZATION_ROLE ( 'creator' ) ;
#227 = LINE ( 'NONE', #187, #57 ) ;
#228 = COORDINATED_UNIVERSAL_TIME_OFFSET ( 1, 0, .AHEAD. ) ;
#229 = CC_DESIGN_DATE_AND_TIME_ASSIGNMENT ( #126, #140, ( #221 ) ) ;
#230 = CIRCLE ( 'NONE', #21, 2.750000000000000000 ) ;
#231 = ADVANCED_FACE ( 'NONE', ( #26 ), #173, .T. ) ;
#232 = ORGANIZATION ( 'NEURÈENÝ', 'NEURÈENÝ', '' ) ;
#233 = ORIENTED_EDGE ( 'NONE', *, *, #94, .T. ) ;
#234 = ADVANCED_BREP_SHAPE_REPRESENTATION ( '2e91', ( #195, #18 ), #168 ) ;
#235 = ORIENTED_EDGE ( 'NONE', *, *, #197, .F. ) ;
#236 = ORIENTED_EDGE ( 'NONE', *, *, #94, .F. ) ;
#237 = DIRECTION ( 'NONE',  ( -1.000000000000000000, 0.000000000000000000, 0.000000000000000000 ) ) ;
#238 = PRODUCT_DEFINITION_SHAPE ( 'NONE', 'NONE',  #221 ) ;
#239 = ADVANCED_FACE ( 'NONE', ( #25 ), #63, .T. ) ;
#240 = ORIENTED_EDGE ( 'NONE', *, *, #255, .T. ) ;
#241 = DIRECTION ( 'NONE',  ( 0.000000000000000000, 0.000000000000000000, 1.000000000000000000 ) ) ;
#242 = ORIENTED_EDGE ( 'NONE', *, *, #255, .F. ) ;
#243 = AXIS2_PLACEMENT_3D ( 'NONE', #22, #62, #132 ) ;
#244 = APPROVAL_STATUS ( 'not_yet_approved' ) ;
#245 = CARTESIAN_POINT ( 'NONE',  ( 0.000000000000000000, 0.000000000000000000, 3.000000000000000000 ) ) ;
#246 = CALENDAR_DATE ( 2023, 12, 2 ) ;
#247 = DIRECTION ( 'NONE',  ( -0.000000000000000000, -0.000000000000000000, -1.000000000000000000 ) ) ;
#248 = DIRECTION ( 'NONE',  ( -0.000000000000000000, -0.000000000000000000, -1.000000000000000000 ) ) ;
#249 = COORDINATED_UNIVERSAL_TIME_OFFSET ( 1, 0, .AHEAD. ) ;
#250 = DIRECTION ( 'NONE',  ( 1.000000000000000000, 0.000000000000000000, -0.000000000000000000 ) ) ;
#251 = CARTESIAN_POINT ( 'NONE',  ( 5.000000000000000000, 6.123233995736766282E-16, 3.000000000000000000 ) ) ;
#252 = LOCAL_TIME ( 13, 25, 46.00000000000000000, #179 ) ;
#253 = COORDINATED_UNIVERSAL_TIME_OFFSET ( 1, 0, .AHEAD. ) ;
#254 = CC_DESIGN_PERSON_AND_ORGANIZATION_ASSIGNMENT ( #35, #220, ( #58 ) ) ;
#255 = EDGE_CURVE ( 'NONE', #219, #65, #181, .T. ) ;
ENDSEC;
END-ISO-10303-21;
