ISO-10303-21;
HEADER;
FILE_DESCRIPTION (( 'STEP AP203' ),
    '1' );
FILE_NAME ('4780.STEP',
    '2023-02-12T10:33:10',
    ( '' ),
    ( '' ),
    'SwSTEP 2.0',
    'SolidWorks 2019',
    '' );
FILE_SCHEMA (( 'CONFIG_CONTROL_DESIGN' ));
ENDSEC;

DATA;
#1 = DIRECTION ( 'NONE',  ( 0.000000000000000000, 0.000000000000000000, 1.000000000000000000 ) ) ;
#2 = PERSON_AND_ORGANIZATION ( #132, #177 ) ;
#3 = ORIENTED_EDGE ( 'NONE', *, *, #74, .F. ) ;
#4 = PRODUCT_DEFINITION_FORMATION_WITH_SPECIFIED_SOURCE ( 'LIBOVOLNÝ', '', #148, .NOT_KNOWN. ) ;
#5 = APPROVAL_STATUS ( 'not_yet_approved' ) ;
#6 = DIRECTION ( 'NONE',  ( 0.000000000000000000, 0.000000000000000000, 1.000000000000000000 ) ) ;
#7 = DIRECTION ( 'NONE',  ( 1.000000000000000000, 0.000000000000000000, 0.000000000000000000 ) ) ;
#8 = APPROVAL ( #186, 'NEURÈENÝ' ) ;
#9 = DATE_AND_TIME ( #184, #44 ) ;
#10 = CARTESIAN_POINT ( 'NONE',  ( 0.000000000000000000, 0.000000000000000000, 8.000000000000000000 ) ) ;
#11 = CARTESIAN_POINT ( 'NONE',  ( 0.000000000000000000, 0.000000000000000000, 160.0000000000000000 ) ) ;
#12 = DIRECTION ( 'NONE',  ( 0.000000000000000000, 0.000000000000000000, 1.000000000000000000 ) ) ;
#13 = SECURITY_CLASSIFICATION ( '', '', #223 ) ;
#14 = EDGE_CURVE ( 'NONE', #60, #103, #83, .T. ) ;
#15 = CARTESIAN_POINT ( 'NONE',  ( 0.000000000000000000, 0.000000000000000000, 8.000000000000000000 ) ) ;
#16 = CARTESIAN_POINT ( 'NONE',  ( -10.00000000000000000, 0.000000000000000000, 8.000000000000000000 ) ) ;
#17 = EDGE_LOOP ( 'NONE', ( #3, #102, #21, #176 ) ) ;
#18 = CARTESIAN_POINT ( 'NONE',  ( -13.00000000000000178, 0.000000000000000000, 8.000000000000000000 ) ) ;
#19 = EDGE_CURVE ( 'NONE', #27, #248, #129, .T. ) ;
#20 = CARTESIAN_POINT ( 'NONE',  ( 0.000000000000000000, 0.000000000000000000, 8.000000000000000000 ) ) ;
#21 = ORIENTED_EDGE ( 'NONE', *, *, #244, .T. ) ;
#22 = CIRCLE ( 'NONE', #49, 13.00000000000000178 ) ;
#23 = DIRECTION ( 'NONE',  ( 1.000000000000000000, 0.000000000000000000, -0.000000000000000000 ) ) ;
#24 = LOCAL_TIME ( 11, 33, 10.00000000000000000, #30 ) ;
#25 = CALENDAR_DATE ( 2023, 12, 2 ) ;
#26 = EDGE_CURVE ( 'NONE', #232, #29, #154, .T. ) ;
#27 = VERTEX_POINT ( 'NONE', #241 ) ;
#28 = APPROVAL_ROLE ( '' ) ;
#29 = VERTEX_POINT ( 'NONE', #72 ) ;
#30 = COORDINATED_UNIVERSAL_TIME_OFFSET ( 1, 0, .AHEAD. ) ;
#31 = DIRECTION ( 'NONE',  ( 0.000000000000000000, 0.000000000000000000, 1.000000000000000000 ) ) ;
#32 = CARTESIAN_POINT ( 'NONE',  ( 13.00000000000000178, 1.592040838891559293E-15, 8.000000000000000000 ) ) ;
#33 = CC_DESIGN_PERSON_AND_ORGANIZATION_ASSIGNMENT ( #106, #193, ( #111 ) ) ;
#34 = EDGE_CURVE ( 'NONE', #80, #221, #251, .T. ) ;
#35 = CIRCLE ( 'NONE', #203, 10.00000000000000000 ) ;
#36 = PLANE ( 'NONE',  #115 ) ;
#37 = CC_DESIGN_APPROVAL ( #94, ( #4 ) ) ;
#38 = DIRECTION ( 'NONE',  ( -0.000000000000000000, -0.000000000000000000, -1.000000000000000000 ) ) ;
#39 = LOCAL_TIME ( 11, 33, 10.00000000000000000, #195 ) ;
#40 = DATE_AND_TIME ( #25, #24 ) ;
#41 = FACE_OUTER_BOUND ( 'NONE', #47, .T. ) ;
#42 = MECHANICAL_CONTEXT ( 'NONE', #238, 'mechanical' ) ;
#43 = ORIENTED_EDGE ( 'NONE', *, *, #74, .T. ) ;
#44 = LOCAL_TIME ( 11, 33, 10.00000000000000000, #110 ) ;
#45 = DATE_TIME_ROLE ( 'classification_date' ) ;
#46 = ORIENTED_EDGE ( 'NONE', *, *, #99, .F. ) ;
#47 = EDGE_LOOP ( 'NONE', ( #239, #166 ) ) ;
#48 = DATE_TIME_ROLE ( 'creation_date' ) ;
#49 = AXIS2_PLACEMENT_3D ( 'NONE', #183, #12, #91 ) ;
#50 = ORIENTED_EDGE ( 'NONE', *, *, #99, .T. ) ;
#51 = CC_DESIGN_APPROVAL ( #8, ( #111 ) ) ;
#52 = CC_DESIGN_PERSON_AND_ORGANIZATION_ASSIGNMENT ( #112, #125, ( #148 ) ) ;
#53 = LOCAL_TIME ( 11, 33, 10.00000000000000000, #61 ) ;
#54 = DIRECTION ( 'NONE',  ( -0.000000000000000000, -0.000000000000000000, -1.000000000000000000 ) ) ;
#55 = CARTESIAN_POINT ( 'NONE',  ( 13.00000000000000178, 1.592040838891559293E-15, 0.000000000000000000 ) ) ;
#56 = FACE_OUTER_BOUND ( 'NONE', #121, .T. ) ;
#57 = DIRECTION ( 'NONE',  ( 1.000000000000000000, 0.000000000000000000, 0.000000000000000000 ) ) ;
#58 = AXIS2_PLACEMENT_3D ( 'NONE', #126, #205, #187 ) ;
#59 = VECTOR ( 'NONE', #38, 1000.000000000000000 ) ;
#60 = VERTEX_POINT ( 'NONE', #194 ) ;
#61 = COORDINATED_UNIVERSAL_TIME_OFFSET ( 1, 0, .AHEAD. ) ;
#62 = EDGE_LOOP ( 'NONE', ( #96, #156, #236, #82 ) ) ;
#63 = ADVANCED_FACE ( 'NONE', ( #41 ), #66, .F. ) ;
#64 = AXIS2_PLACEMENT_3D ( 'NONE', #182, #6, #86 ) ;
#65 = COORDINATED_UNIVERSAL_TIME_OFFSET ( 1, 0, .AHEAD. ) ;
#66 = PLANE ( 'NONE',  #253 ) ;
#67 = AXIS2_PLACEMENT_3D ( 'NONE', #15, #54, #235 ) ;
#68 = CC_DESIGN_SECURITY_CLASSIFICATION ( #13, ( #4 ) ) ;
#69 = SHAPE_DEFINITION_REPRESENTATION ( #75, #168 ) ;
#70 = DIRECTION ( 'NONE',  ( -0.000000000000000000, -0.000000000000000000, -1.000000000000000000 ) ) ;
#71 = ADVANCED_FACE ( 'NONE', ( #246 ), #107, .T. ) ;
#72 = CARTESIAN_POINT ( 'NONE',  ( 13.00000000000000178, 1.592040838891559293E-15, 8.000000000000000000 ) ) ;
#73 = EDGE_CURVE ( 'NONE', #29, #232, #202, .T. ) ;
#74 = EDGE_CURVE ( 'NONE', #29, #221, #88, .T. ) ;
#75 = PRODUCT_DEFINITION_SHAPE ( 'NONE', 'NONE',  #111 ) ;
#76 = DIRECTION ( 'NONE',  ( 0.000000000000000000, 0.000000000000000000, 1.000000000000000000 ) ) ;
#77 = DIRECTION ( 'NONE',  ( -1.000000000000000000, 0.000000000000000000, 0.000000000000000000 ) ) ;
#78 = MANIFOLD_SOLID_BREP ( 'Pøidat vysunutím3', #212 ) ;
#79 = ADVANCED_FACE ( 'NONE', ( #228 ), #116, .T. ) ;
#80 = VERTEX_POINT ( 'NONE', #189 ) ;
#81 = CIRCLE ( 'NONE', #229, 10.00000000000000000 ) ;
#82 = ORIENTED_EDGE ( 'NONE', *, *, #134, .T. ) ;
#83 = LINE ( 'NONE', #130, #133 ) ;
#84 = EDGE_CURVE ( 'NONE', #221, #80, #22, .T. ) ;
#85 = PERSON_AND_ORGANIZATION ( #132, #177 ) ;
#86 = DIRECTION ( 'NONE',  ( 1.000000000000000000, 0.000000000000000000, 0.000000000000000000 ) ) ;
#87 = PERSON_AND_ORGANIZATION ( #132, #177 ) ;
#88 = LINE ( 'NONE', #32, #234 ) ;
#89 = CALENDAR_DATE ( 2023, 12, 2 ) ;
#90 = DIRECTION ( 'NONE',  ( -0.000000000000000000, -0.000000000000000000, -1.000000000000000000 ) ) ;
#91 = DIRECTION ( 'NONE',  ( 1.000000000000000000, 0.000000000000000000, 0.000000000000000000 ) ) ;
#92 = FACE_OUTER_BOUND ( 'NONE', #17, .T. ) ;
#93 = AXIS2_PLACEMENT_3D ( 'NONE', #10, #160, #143 ) ;
#94 = APPROVAL ( #5, 'NEURÈENÝ' ) ;
#95 = DIRECTION ( 'NONE',  ( 1.000000000000000000, 0.000000000000000000, -0.000000000000000000 ) ) ;
#96 = ORIENTED_EDGE ( 'NONE', *, *, #14, .F. ) ;
#97 = DIRECTION ( 'NONE',  ( 1.000000000000000000, 0.000000000000000000, 0.000000000000000000 ) ) ;
#98 = ORIENTED_EDGE ( 'NONE', *, *, #19, .F. ) ;
#99 = EDGE_CURVE ( 'NONE', #103, #248, #81, .T. ) ;
#100 = FACE_BOUND ( 'NONE', #224, .T. ) ;
#101 = CARTESIAN_POINT ( 'NONE',  ( 0.000000000000000000, 0.000000000000000000, 160.0000000000000000 ) ) ;
#102 = ORIENTED_EDGE ( 'NONE', *, *, #26, .F. ) ;
#103 = VERTEX_POINT ( 'NONE', #138 ) ;
#104 = CIRCLE ( 'NONE', #64, 10.00000000000000000 ) ;
#105 = AXIS2_PLACEMENT_3D ( 'NONE', #109, #113, #164 ) ;
#106 = PERSON_AND_ORGANIZATION ( #132, #177 ) ;
#107 = PLANE ( 'NONE',  #208 ) ;
#108 = PERSON_AND_ORGANIZATION_ROLE ( 'creator' ) ;
#109 = CARTESIAN_POINT ( 'NONE',  ( 0.000000000000000000, 0.000000000000000000, 8.000000000000000000 ) ) ;
#110 = COORDINATED_UNIVERSAL_TIME_OFFSET ( 1, 0, .AHEAD. ) ;
#111 = PRODUCT_DEFINITION ( 'NEZNÁMÝ', '', #4, #122 ) ;
#112 = PERSON_AND_ORGANIZATION ( #132, #177 ) ;
#113 = DIRECTION ( 'NONE',  ( -0.000000000000000000, -0.000000000000000000, -1.000000000000000000 ) ) ;
#114 = AXIS2_PLACEMENT_3D ( 'NONE', #215, #120, #77 ) ;
#115 = AXIS2_PLACEMENT_3D ( 'NONE', #20, #1, #95 ) ;
#116 = CYLINDRICAL_SURFACE ( 'NONE', #105, 13.00000000000000178 ) ;
#117 = CC_DESIGN_APPROVAL ( #174, ( #13 ) ) ;
#118 = APPLICATION_PROTOCOL_DEFINITION ( 'international standard', 'config_control_design', 1994, #238 ) ;
#119 = CARTESIAN_POINT ( 'NONE',  ( 0.000000000000000000, 0.000000000000000000, 160.0000000000000000 ) ) ;
#120 = DIRECTION ( 'NONE',  ( -0.000000000000000000, -0.000000000000000000, -1.000000000000000000 ) ) ;
#121 = EDGE_LOOP ( 'NONE', ( #124, #216 ) ) ;
#122 = DESIGN_CONTEXT ( 'detailed design', #135, 'design' ) ;
#123 = APPROVAL_ROLE ( '' ) ;
#124 = ORIENTED_EDGE ( 'NONE', *, *, #26, .T. ) ;
#125 = PERSON_AND_ORGANIZATION_ROLE ( 'design_owner' ) ;
#126 = CARTESIAN_POINT ( 'NONE',  ( 0.000000000000000000, 0.000000000000000000, 0.000000000000000000 ) ) ;
#127 = PERSON_AND_ORGANIZATION ( #132, #177 ) ;
#128 = PRODUCT_RELATED_PRODUCT_CATEGORY ( 'detail', '', ( #148 ) ) ;
#129 = LINE ( 'NONE', #185, #161 ) ;
#130 = CARTESIAN_POINT ( 'NONE',  ( 10.00000000000000000, 1.224646799147353256E-15, 160.0000000000000000 ) ) ;
#131 = CARTESIAN_POINT ( 'NONE',  ( 0.000000000000000000, 0.000000000000000000, 8.000000000000000000 ) ) ;
#132 = PERSON ( 'NEURÈENÝ', 'NEURÈENÝ', 'NEURÈENÝ', ('NEURÈENÝ'), ('NEURÈENÝ'), ('NEURÈENÝ') ) ;
#133 = VECTOR ( 'NONE', #144, 1000.000000000000000 ) ;
#134 = EDGE_CURVE ( 'NONE', #248, #103, #104, .T. ) ;
#135 = APPLICATION_CONTEXT ( 'configuration controlled 3d designs of mechanical parts and assemblies' ) ;
#136 =( NAMED_UNIT ( * ) SI_UNIT ( $, .STERADIAN. ) SOLID_ANGLE_UNIT ( ) );
#137 = EDGE_LOOP ( 'NONE', ( #179, #157, #50, #98 ) ) ;
#138 = CARTESIAN_POINT ( 'NONE',  ( 10.00000000000000000, 1.224646799147353256E-15, 8.000000000000000000 ) ) ;
#139 = APPROVAL_DATE_TIME ( #40, #94 ) ;
#140 = DIRECTION ( 'NONE',  ( 1.000000000000000000, 0.000000000000000000, 0.000000000000000000 ) ) ;
#141 = ADVANCED_FACE ( 'NONE', ( #243 ), #171, .T. ) ;
#142 = DATE_AND_TIME ( #165, #172 ) ;
#143 = DIRECTION ( 'NONE',  ( 1.000000000000000000, 0.000000000000000000, 0.000000000000000000 ) ) ;
#144 = DIRECTION ( 'NONE',  ( -0.000000000000000000, -0.000000000000000000, -1.000000000000000000 ) ) ;
#145 = APPLICATION_PROTOCOL_DEFINITION ( 'international standard', 'config_control_design', 1994, #135 ) ;
#146 = CARTESIAN_POINT ( 'NONE',  ( 0.000000000000000000, 0.000000000000000000, 0.000000000000000000 ) ) ;
#147 = ADVANCED_FACE ( 'NONE', ( #92 ), #170, .T. ) ;
#148 = PRODUCT ( '4780', '4780', '', ( #42 ) ) ;
#149 = CARTESIAN_POINT ( 'NONE',  ( -13.00000000000000178, 0.000000000000000000, 8.000000000000000000 ) ) ;
#150 = EDGE_LOOP ( 'NONE', ( #196, #43, #255, #178 ) ) ;
#151 = FACE_OUTER_BOUND ( 'NONE', #137, .T. ) ;
#152 = ORIENTED_EDGE ( 'NONE', *, *, #190, .T. ) ;
#153 = DIRECTION ( 'NONE',  ( 0.000000000000000000, 0.000000000000000000, 1.000000000000000000 ) ) ;
#154 = CIRCLE ( 'NONE', #192, 13.00000000000000178 ) ;
#155 = APPROVAL_PERSON_ORGANIZATION ( #127, #174, #28 ) ;
#156 = ORIENTED_EDGE ( 'NONE', *, *, #190, .F. ) ;
#157 = ORIENTED_EDGE ( 'NONE', *, *, #14, .T. ) ;
#158 = CC_DESIGN_PERSON_AND_ORGANIZATION_ASSIGNMENT ( #2, #200, ( #4 ) ) ;
#159 = APPROVAL_ROLE ( '' ) ;
#160 = DIRECTION ( 'NONE',  ( 0.000000000000000000, 0.000000000000000000, 1.000000000000000000 ) ) ;
#161 = VECTOR ( 'NONE', #70, 1000.000000000000000 ) ;
#162 = PERSON_AND_ORGANIZATION_ROLE ( 'classification_officer' ) ;
#163 = APPROVAL_PERSON_ORGANIZATION ( #240, #8, #159 ) ;
#164 = DIRECTION ( 'NONE',  ( -1.000000000000000000, 0.000000000000000000, 0.000000000000000000 ) ) ;
#165 = CALENDAR_DATE ( 2023, 12, 2 ) ;
#166 = ORIENTED_EDGE ( 'NONE', *, *, #84, .F. ) ;
#167 = CARTESIAN_POINT ( 'NONE',  ( 0.000000000000000000, 0.000000000000000000, 8.000000000000000000 ) ) ;
#168 = ADVANCED_BREP_SHAPE_REPRESENTATION ( '4780', ( #78, #237 ), #204 ) ;
#169 = CC_DESIGN_PERSON_AND_ORGANIZATION_ASSIGNMENT ( #87, #108, ( #4 ) ) ;
#170 = CYLINDRICAL_SURFACE ( 'NONE', #67, 13.00000000000000178 ) ;
#171 = CYLINDRICAL_SURFACE ( 'NONE', #209, 10.00000000000000000 ) ;
#172 = LOCAL_TIME ( 11, 33, 10.00000000000000000, #65 ) ;
#173 = LINE ( 'NONE', #149, #59 ) ;
#174 = APPROVAL ( #197, 'NEURÈENÝ' ) ;
#175 =( LENGTH_UNIT ( ) NAMED_UNIT ( * ) SI_UNIT ( .MILLI., .METRE. ) );
#176 = ORIENTED_EDGE ( 'NONE', *, *, #34, .T. ) ;
#177 = ORGANIZATION ( 'NEURÈENÝ', 'NEURÈENÝ', '' ) ;
#178 = ORIENTED_EDGE ( 'NONE', *, *, #244, .F. ) ;
#179 = ORIENTED_EDGE ( 'NONE', *, *, #219, .F. ) ;
#180 = ORIENTED_EDGE ( 'NONE', *, *, #134, .F. ) ;
#181 = DATE_AND_TIME ( #89, #39 ) ;
#182 = CARTESIAN_POINT ( 'NONE',  ( 0.000000000000000000, 0.000000000000000000, 8.000000000000000000 ) ) ;
#183 = CARTESIAN_POINT ( 'NONE',  ( 0.000000000000000000, 0.000000000000000000, 0.000000000000000000 ) ) ;
#184 = CALENDAR_DATE ( 2023, 12, 2 ) ;
#185 = CARTESIAN_POINT ( 'NONE',  ( -10.00000000000000000, 0.000000000000000000, 160.0000000000000000 ) ) ;
#186 = APPROVAL_STATUS ( 'not_yet_approved' ) ;
#187 = DIRECTION ( 'NONE',  ( 1.000000000000000000, 0.000000000000000000, 0.000000000000000000 ) ) ;
#188 = ADVANCED_FACE ( 'NONE', ( #151 ), #214, .T. ) ;
#189 = CARTESIAN_POINT ( 'NONE',  ( -13.00000000000000178, 0.000000000000000000, 0.000000000000000000 ) ) ;
#190 = EDGE_CURVE ( 'NONE', #27, #60, #35, .T. ) ;
#191 =( NAMED_UNIT ( * ) PLANE_ANGLE_UNIT ( ) SI_UNIT ( $, .RADIAN. ) );
#192 = AXIS2_PLACEMENT_3D ( 'NONE', #131, #226, #140 ) ;
#193 = PERSON_AND_ORGANIZATION_ROLE ( 'creator' ) ;
#194 = CARTESIAN_POINT ( 'NONE',  ( 10.00000000000000000, 1.224646799147353256E-15, 160.0000000000000000 ) ) ;
#195 = COORDINATED_UNIVERSAL_TIME_OFFSET ( 1, 0, .AHEAD. ) ;
#196 = ORIENTED_EDGE ( 'NONE', *, *, #73, .F. ) ;
#197 = APPROVAL_STATUS ( 'not_yet_approved' ) ;
#198 = DIRECTION ( 'NONE',  ( 0.000000000000000000, 0.000000000000000000, 1.000000000000000000 ) ) ;
#199 = UNCERTAINTY_MEASURE_WITH_UNIT (LENGTH_MEASURE( 1.000000000000000082E-05 ), #175, 'distance_accuracy_value', 'NONE');
#200 = PERSON_AND_ORGANIZATION_ROLE ( 'design_supplier' ) ;
#201 = DIRECTION ( 'NONE',  ( 1.000000000000000000, 0.000000000000000000, -0.000000000000000000 ) ) ;
#202 = CIRCLE ( 'NONE', #93, 13.00000000000000178 ) ;
#203 = AXIS2_PLACEMENT_3D ( 'NONE', #119, #76, #97 ) ;
#204 =( GEOMETRIC_REPRESENTATION_CONTEXT ( 3 ) GLOBAL_UNCERTAINTY_ASSIGNED_CONTEXT ( ( #199 ) ) GLOBAL_UNIT_ASSIGNED_CONTEXT ( ( #175, #191, #136 ) ) REPRESENTATION_CONTEXT ( 'NONE', 'WORKASPACE' ) );
#205 = DIRECTION ( 'NONE',  ( 0.000000000000000000, 0.000000000000000000, 1.000000000000000000 ) ) ;
#206 = CARTESIAN_POINT ( 'NONE',  ( 0.000000000000000000, 0.000000000000000000, 160.0000000000000000 ) ) ;
#207 = CC_DESIGN_DATE_AND_TIME_ASSIGNMENT ( #181, #48, ( #111 ) ) ;
#208 = AXIS2_PLACEMENT_3D ( 'NONE', #11, #31, #23 ) ;
#209 = AXIS2_PLACEMENT_3D ( 'NONE', #206, #250, #230 ) ;
#210 = AXIS2_PLACEMENT_3D ( 'NONE', #101, #153, #57 ) ;
#211 = CC_DESIGN_DATE_AND_TIME_ASSIGNMENT ( #142, #45, ( #13 ) ) ;
#212 = CLOSED_SHELL ( 'NONE', ( #188, #79, #147, #233, #63, #141, #71 ) ) ;
#213 = CC_DESIGN_PERSON_AND_ORGANIZATION_ASSIGNMENT ( #85, #162, ( #13 ) ) ;
#214 = CYLINDRICAL_SURFACE ( 'NONE', #114, 10.00000000000000000 ) ;
#215 = CARTESIAN_POINT ( 'NONE',  ( 0.000000000000000000, 0.000000000000000000, 160.0000000000000000 ) ) ;
#216 = ORIENTED_EDGE ( 'NONE', *, *, #73, .T. ) ;
#217 = DATE_AND_TIME ( #227, #53 ) ;
#218 = ORIENTED_EDGE ( 'NONE', *, *, #219, .T. ) ;
#219 = EDGE_CURVE ( 'NONE', #60, #27, #222, .T. ) ;
#220 = DIRECTION ( 'NONE',  ( 0.000000000000000000, 0.000000000000000000, 1.000000000000000000 ) ) ;
#221 = VERTEX_POINT ( 'NONE', #55 ) ;
#222 = CIRCLE ( 'NONE', #210, 10.00000000000000000 ) ;
#223 = SECURITY_CLASSIFICATION_LEVEL ( 'unclassified' ) ;
#224 = EDGE_LOOP ( 'NONE', ( #180, #46 ) ) ;
#225 = APPROVAL_DATE_TIME ( #217, #8 ) ;
#226 = DIRECTION ( 'NONE',  ( 0.000000000000000000, 0.000000000000000000, 1.000000000000000000 ) ) ;
#227 = CALENDAR_DATE ( 2023, 12, 2 ) ;
#228 = FACE_OUTER_BOUND ( 'NONE', #150, .T. ) ;
#229 = AXIS2_PLACEMENT_3D ( 'NONE', #167, #249, #7 ) ;
#230 = DIRECTION ( 'NONE',  ( -1.000000000000000000, 0.000000000000000000, 0.000000000000000000 ) ) ;
#231 = APPROVAL_PERSON_ORGANIZATION ( #242, #94, #123 ) ;
#232 = VERTEX_POINT ( 'NONE', #18 ) ;
#233 = ADVANCED_FACE ( 'NONE', ( #100, #56 ), #36, .T. ) ;
#234 = VECTOR ( 'NONE', #90, 1000.000000000000000 ) ;
#235 = DIRECTION ( 'NONE',  ( -1.000000000000000000, 0.000000000000000000, 0.000000000000000000 ) ) ;
#236 = ORIENTED_EDGE ( 'NONE', *, *, #19, .T. ) ;
#237 = AXIS2_PLACEMENT_3D ( 'NONE', #254, #220, #247 ) ;
#238 = APPLICATION_CONTEXT ( 'configuration controlled 3d designs of mechanical parts and assemblies' ) ;
#239 = ORIENTED_EDGE ( 'NONE', *, *, #34, .F. ) ;
#240 = PERSON_AND_ORGANIZATION ( #132, #177 ) ;
#241 = CARTESIAN_POINT ( 'NONE',  ( -10.00000000000000000, 0.000000000000000000, 160.0000000000000000 ) ) ;
#242 = PERSON_AND_ORGANIZATION ( #132, #177 ) ;
#243 = FACE_OUTER_BOUND ( 'NONE', #62, .T. ) ;
#244 = EDGE_CURVE ( 'NONE', #232, #80, #173, .T. ) ;
#245 = APPROVAL_DATE_TIME ( #9, #174 ) ;
#246 = FACE_OUTER_BOUND ( 'NONE', #252, .T. ) ;
#247 = DIRECTION ( 'NONE',  ( 1.000000000000000000, 0.000000000000000000, 0.000000000000000000 ) ) ;
#248 = VERTEX_POINT ( 'NONE', #16 ) ;
#249 = DIRECTION ( 'NONE',  ( 0.000000000000000000, 0.000000000000000000, 1.000000000000000000 ) ) ;
#250 = DIRECTION ( 'NONE',  ( -0.000000000000000000, -0.000000000000000000, -1.000000000000000000 ) ) ;
#251 = CIRCLE ( 'NONE', #58, 13.00000000000000178 ) ;
#252 = EDGE_LOOP ( 'NONE', ( #152, #218 ) ) ;
#253 = AXIS2_PLACEMENT_3D ( 'NONE', #146, #198, #201 ) ;
#254 = CARTESIAN_POINT ( 'NONE',  ( 0.000000000000000000, 0.000000000000000000, 0.000000000000000000 ) ) ;
#255 = ORIENTED_EDGE ( 'NONE', *, *, #84, .T. ) ;
ENDSEC;
END-ISO-10303-21;
