ISO-10303-21;
HEADER;
FILE_DESCRIPTION (( 'STEP AP203' ),
    '1' );
FILE_NAME ('0a91.STEP',
    '2023-02-12T10:54:51',
    ( '' ),
    ( '' ),
    'SwSTEP 2.0',
    'SolidWorks 2019',
    '' );
FILE_SCHEMA (( 'CONFIG_CONTROL_DESIGN' ));
ENDSEC;

DATA;
#1 = VERTEX_POINT ( 'NONE', #117 ) ;
#2 = VECTOR ( 'NONE', #231, 1000.000000000000000 ) ;
#3 = EDGE_LOOP ( 'NONE', ( #47, #99, #233, #155 ) ) ;
#4 = CC_DESIGN_SECURITY_CLASSIFICATION ( #31, ( #218 ) ) ;
#5 = DATE_AND_TIME ( #142, #137 ) ;
#6 = VERTEX_POINT ( 'NONE', #213 ) ;
#7 = APPLICATION_PROTOCOL_DEFINITION ( 'international standard', 'config_control_design', 1994, #212 ) ;
#8 = LINE ( 'NONE', #125, #132 ) ;
#9 = UNCERTAINTY_MEASURE_WITH_UNIT (LENGTH_MEASURE( 1.000000000000000082E-05 ), #64, 'distance_accuracy_value', 'NONE');
#10 = SECURITY_CLASSIFICATION_LEVEL ( 'unclassified' ) ;
#11 = DIRECTION ( 'NONE',  ( 0.000000000000000000, 0.000000000000000000, 1.000000000000000000 ) ) ;
#12 = ADVANCED_FACE ( 'NONE', ( #252 ), #43, .F. ) ;
#13 = PERSON_AND_ORGANIZATION_ROLE ( 'classification_officer' ) ;
#14 = DIRECTION ( 'NONE',  ( 0.000000000000000000, 0.000000000000000000, 1.000000000000000000 ) ) ;
#15 = CARTESIAN_POINT ( 'NONE',  ( 0.000000000000000000, 0.000000000000000000, 7.000000000000000000 ) ) ;
#16 = AXIS2_PLACEMENT_3D ( 'NONE', #114, #220, #95 ) ;
#17 = AXIS2_PLACEMENT_3D ( 'NONE', #107, #51, #245 ) ;
#18 = ORIENTED_EDGE ( 'NONE', *, *, #163, .F. ) ;
#19 = ORIENTED_EDGE ( 'NONE', *, *, #85, .T. ) ;
#20 = AXIS2_PLACEMENT_3D ( 'NONE', #120, #198, #75 ) ;
#21 = MANIFOLD_SOLID_BREP ( 'Pøidat vysunutím3', #229 ) ;
#22 = CC_DESIGN_APPROVAL ( #192, ( #234 ) ) ;
#23 = EDGE_CURVE ( 'NONE', #135, #6, #68, .T. ) ;
#24 = ORIENTED_EDGE ( 'NONE', *, *, #172, .F. ) ;
#25 = AXIS2_PLACEMENT_3D ( 'NONE', #227, #57, #49 ) ;
#26 = DATE_AND_TIME ( #112, #153 ) ;
#27 = DIRECTION ( 'NONE',  ( -0.000000000000000000, -0.000000000000000000, -1.000000000000000000 ) ) ;
#28 = PERSON_AND_ORGANIZATION_ROLE ( 'creator' ) ;
#29 = ADVANCED_FACE ( 'NONE', ( #171 ), #226, .T. ) ;
#30 = DIRECTION ( 'NONE',  ( 1.000000000000000000, 0.000000000000000000, 0.000000000000000000 ) ) ;
#31 = SECURITY_CLASSIFICATION ( '', '', #10 ) ;
#32 = DIRECTION ( 'NONE',  ( 1.000000000000000000, 0.000000000000000000, 0.000000000000000000 ) ) ;
#33 = CARTESIAN_POINT ( 'NONE',  ( -9.000000000000000000, 0.000000000000000000, 7.000000000000000000 ) ) ;
#34 = APPROVAL_DATE_TIME ( #244, #192 ) ;
#35 = DIRECTION ( 'NONE',  ( -1.000000000000000000, 0.000000000000000000, 0.000000000000000000 ) ) ;
#36 = LINE ( 'NONE', #202, #86 ) ;
#37 = ADVANCED_FACE ( 'NONE', ( #151 ), #208, .T. ) ;
#38 = CC_DESIGN_DATE_AND_TIME_ASSIGNMENT ( #5, #150, ( #234 ) ) ;
#39 = VERTEX_POINT ( 'NONE', #33 ) ;
#40 = ORIENTED_EDGE ( 'NONE', *, *, #66, .F. ) ;
#41 = FACE_BOUND ( 'NONE', #178, .T. ) ;
#42 = CC_DESIGN_APPROVAL ( #175, ( #218 ) ) ;
#43 = PLANE ( 'NONE',  #20 ) ;
#44 = ADVANCED_FACE ( 'NONE', ( #97 ), #250, .T. ) ;
#45 = CARTESIAN_POINT ( 'NONE',  ( 0.000000000000000000, 0.000000000000000000, 0.000000000000000000 ) ) ;
#46 = AXIS2_PLACEMENT_3D ( 'NONE', #235, #65, #145 ) ;
#47 = ORIENTED_EDGE ( 'NONE', *, *, #101, .F. ) ;
#48 = APPLICATION_PROTOCOL_DEFINITION ( 'international standard', 'config_control_design', 1994, #236 ) ;
#49 = DIRECTION ( 'NONE',  ( -1.000000000000000000, 0.000000000000000000, 0.000000000000000000 ) ) ;
#50 = APPROVAL_STATUS ( 'not_yet_approved' ) ;
#51 = DIRECTION ( 'NONE',  ( 0.000000000000000000, 0.000000000000000000, 1.000000000000000000 ) ) ;
#52 = PERSON_AND_ORGANIZATION ( #104, #242 ) ;
#53 = CIRCLE ( 'NONE', #193, 6.250000000000000000 ) ;
#54 = CARTESIAN_POINT ( 'NONE',  ( 9.000000000000000000, 1.102182119232617714E-15, 7.000000000000000000 ) ) ;
#55 = DATE_TIME_ROLE ( 'classification_date' ) ;
#56 = FACE_OUTER_BOUND ( 'NONE', #119, .T. ) ;
#57 = DIRECTION ( 'NONE',  ( -0.000000000000000000, -0.000000000000000000, -1.000000000000000000 ) ) ;
#58 = EDGE_CURVE ( 'NONE', #182, #135, #8, .T. ) ;
#59 = AXIS2_PLACEMENT_3D ( 'NONE', #73, #130, #35 ) ;
#60 = CIRCLE ( 'NONE', #17, 9.000000000000000000 ) ;
#61 = EDGE_LOOP ( 'NONE', ( #40, #156, #176, #179 ) ) ;
#62 = EDGE_CURVE ( 'NONE', #39, #158, #197, .T. ) ;
#63 = AXIS2_PLACEMENT_3D ( 'NONE', #162, #249, #123 ) ;
#64 =( LENGTH_UNIT ( ) NAMED_UNIT ( * ) SI_UNIT ( .MILLI., .METRE. ) );
#65 = DIRECTION ( 'NONE',  ( -0.000000000000000000, -0.000000000000000000, -1.000000000000000000 ) ) ;
#66 = EDGE_CURVE ( 'NONE', #182, #71, #136, .T. ) ;
#67 = ORIENTED_EDGE ( 'NONE', *, *, #85, .F. ) ;
#68 = CIRCLE ( 'NONE', #184, 6.250000000000000000 ) ;
#69 = APPROVAL_ROLE ( '' ) ;
#70 = CIRCLE ( 'NONE', #87, 6.250000000000000000 ) ;
#71 = VERTEX_POINT ( 'NONE', #77 ) ;
#72 = EDGE_CURVE ( 'NONE', #71, #182, #53, .T. ) ;
#73 = CARTESIAN_POINT ( 'NONE',  ( 0.000000000000000000, 0.000000000000000000, 315.0000000000000000 ) ) ;
#74 = PERSON_AND_ORGANIZATION ( #104, #242 ) ;
#75 = DIRECTION ( 'NONE',  ( 1.000000000000000000, 0.000000000000000000, -0.000000000000000000 ) ) ;
#76 = COORDINATED_UNIVERSAL_TIME_OFFSET ( 1, 0, .AHEAD. ) ;
#77 = CARTESIAN_POINT ( 'NONE',  ( -6.250000000000000000, 0.000000000000000000, 315.0000000000000000 ) ) ;
#78 = PERSON_AND_ORGANIZATION_ROLE ( 'creator' ) ;
#79 = DIRECTION ( 'NONE',  ( 0.000000000000000000, 0.000000000000000000, 1.000000000000000000 ) ) ;
#80 = DIRECTION ( 'NONE',  ( 0.000000000000000000, 0.000000000000000000, 1.000000000000000000 ) ) ;
#81 = EDGE_CURVE ( 'NONE', #158, #1, #36, .T. ) ;
#82 = CYLINDRICAL_SURFACE ( 'NONE', #46, 9.000000000000000000 ) ;
#83 = ORIENTED_EDGE ( 'NONE', *, *, #214, .T. ) ;
#84 = AXIS2_PLACEMENT_3D ( 'NONE', #154, #102, #254 ) ;
#85 = EDGE_CURVE ( 'NONE', #103, #1, #223, .T. ) ;
#86 = VECTOR ( 'NONE', #27, 1000.000000000000000 ) ;
#87 = AXIS2_PLACEMENT_3D ( 'NONE', #109, #11, #93 ) ;
#88 = ORIENTED_EDGE ( 'NONE', *, *, #58, .F. ) ;
#89 = CC_DESIGN_PERSON_AND_ORGANIZATION_ASSIGNMENT ( #74, #144, ( #122 ) ) ;
#90 = ORIENTED_EDGE ( 'NONE', *, *, #201, .T. ) ;
#91 = AXIS2_PLACEMENT_3D ( 'NONE', #131, #209, #111 ) ;
#92 = CC_DESIGN_APPROVAL ( #106, ( #31 ) ) ;
#93 = DIRECTION ( 'NONE',  ( 1.000000000000000000, 0.000000000000000000, 0.000000000000000000 ) ) ;
#94 = PERSON_AND_ORGANIZATION ( #104, #242 ) ;
#95 = DIRECTION ( 'NONE',  ( 1.000000000000000000, 0.000000000000000000, -0.000000000000000000 ) ) ;
#96 = COORDINATED_UNIVERSAL_TIME_OFFSET ( 1, 0, .AHEAD. ) ;
#97 = FACE_OUTER_BOUND ( 'NONE', #157, .T. ) ;
#98 = CARTESIAN_POINT ( 'NONE',  ( -9.000000000000000000, 0.000000000000000000, 7.000000000000000000 ) ) ;
#99 = ORIENTED_EDGE ( 'NONE', *, *, #81, .T. ) ;
#100 = DIRECTION ( 'NONE',  ( -0.000000000000000000, -0.000000000000000000, -1.000000000000000000 ) ) ;
#101 = EDGE_CURVE ( 'NONE', #158, #39, #60, .T. ) ;
#102 = DIRECTION ( 'NONE',  ( 0.000000000000000000, 0.000000000000000000, 1.000000000000000000 ) ) ;
#103 = VERTEX_POINT ( 'NONE', #191 ) ;
#104 = PERSON ( 'NEURÈENÝ', 'NEURÈENÝ', 'NEURÈENÝ', ('NEURÈENÝ'), ('NEURÈENÝ'), ('NEURÈENÝ') ) ;
#105 = DATE_AND_TIME ( #199, #128 ) ;
#106 = APPROVAL ( #166, 'NEURÈENÝ' ) ;
#107 = CARTESIAN_POINT ( 'NONE',  ( 0.000000000000000000, 0.000000000000000000, 7.000000000000000000 ) ) ;
#108 = PERSON_AND_ORGANIZATION_ROLE ( 'design_supplier' ) ;
#109 = CARTESIAN_POINT ( 'NONE',  ( 0.000000000000000000, 0.000000000000000000, 7.000000000000000000 ) ) ;
#110 = CALENDAR_DATE ( 2023, 12, 2 ) ;
#111 = DIRECTION ( 'NONE',  ( 1.000000000000000000, 0.000000000000000000, 0.000000000000000000 ) ) ;
#112 = CALENDAR_DATE ( 2023, 12, 2 ) ;
#113 = CARTESIAN_POINT ( 'NONE',  ( 6.250000000000000000, 7.654042494670957606E-16, 7.000000000000000000 ) ) ;
#114 = CARTESIAN_POINT ( 'NONE',  ( 0.000000000000000000, 0.000000000000000000, 315.0000000000000000 ) ) ;
#115 = FACE_OUTER_BOUND ( 'NONE', #196, .T. ) ;
#116 = EDGE_LOOP ( 'NONE', ( #237, #160 ) ) ;
#117 = CARTESIAN_POINT ( 'NONE',  ( 9.000000000000000000, 1.102182119232617714E-15, 0.000000000000000000 ) ) ;
#118 = PLANE ( 'NONE',  #84 ) ;
#119 = EDGE_LOOP ( 'NONE', ( #88, #240, #90, #200 ) ) ;
#120 = CARTESIAN_POINT ( 'NONE',  ( 0.000000000000000000, 0.000000000000000000, 0.000000000000000000 ) ) ;
#121 = PERSON_AND_ORGANIZATION ( #104, #242 ) ;
#122 = PRODUCT ( '0a91', '0a91', '', ( #239 ) ) ;
#123 = DIRECTION ( 'NONE',  ( 1.000000000000000000, 0.000000000000000000, 0.000000000000000000 ) ) ;
#124 = DATE_AND_TIME ( #187, #251 ) ;
#125 = CARTESIAN_POINT ( 'NONE',  ( 6.250000000000000000, 7.654042494670957606E-16, 315.0000000000000000 ) ) ;
#126 = AXIS2_PLACEMENT_3D ( 'NONE', #146, #186, #143 ) ;
#127 = CC_DESIGN_PERSON_AND_ORGANIZATION_ASSIGNMENT ( #52, #108, ( #218 ) ) ;
#128 = LOCAL_TIME ( 11, 54, 51.00000000000000000, #169 ) ;
#129 = DIRECTION ( 'NONE',  ( 1.000000000000000000, 0.000000000000000000, 0.000000000000000000 ) ) ;
#130 = DIRECTION ( 'NONE',  ( -0.000000000000000000, -0.000000000000000000, -1.000000000000000000 ) ) ;
#131 = CARTESIAN_POINT ( 'NONE',  ( 0.000000000000000000, 0.000000000000000000, 7.000000000000000000 ) ) ;
#132 = VECTOR ( 'NONE', #167, 1000.000000000000000 ) ;
#133 = APPROVAL_PERSON_ORGANIZATION ( #147, #192, #161 ) ;
#134 = APPROVAL_PERSON_ORGANIZATION ( #219, #175, #69 ) ;
#135 = VERTEX_POINT ( 'NONE', #113 ) ;
#136 = CIRCLE ( 'NONE', #63, 6.250000000000000000 ) ;
#137 = LOCAL_TIME ( 11, 54, 51.00000000000000000, #247 ) ;
#138 = EDGE_LOOP ( 'NONE', ( #67, #24 ) ) ;
#139 = ORIENTED_EDGE ( 'NONE', *, *, #62, .F. ) ;
#140 = ADVANCED_FACE ( 'NONE', ( #56 ), #188, .T. ) ;
#141 = ORIENTED_EDGE ( 'NONE', *, *, #81, .F. ) ;
#142 = CALENDAR_DATE ( 2023, 12, 2 ) ;
#143 = DIRECTION ( 'NONE',  ( -1.000000000000000000, 0.000000000000000000, 0.000000000000000000 ) ) ;
#144 = PERSON_AND_ORGANIZATION_ROLE ( 'design_owner' ) ;
#145 = DIRECTION ( 'NONE',  ( -1.000000000000000000, 0.000000000000000000, 0.000000000000000000 ) ) ;
#146 = CARTESIAN_POINT ( 'NONE',  ( 0.000000000000000000, 0.000000000000000000, 7.000000000000000000 ) ) ;
#147 = PERSON_AND_ORGANIZATION ( #104, #242 ) ;
#148 = VECTOR ( 'NONE', #100, 1000.000000000000000 ) ;
#149 = LINE ( 'NONE', #190, #148 ) ;
#150 = DATE_TIME_ROLE ( 'creation_date' ) ;
#151 = FACE_OUTER_BOUND ( 'NONE', #61, .T. ) ;
#152 = LINE ( 'NONE', #98, #2 ) ;
#153 = LOCAL_TIME ( 11, 54, 51.00000000000000000, #76 ) ;
#154 = CARTESIAN_POINT ( 'NONE',  ( 0.000000000000000000, 0.000000000000000000, 7.000000000000000000 ) ) ;
#155 = ORIENTED_EDGE ( 'NONE', *, *, #214, .F. ) ;
#156 = ORIENTED_EDGE ( 'NONE', *, *, #58, .T. ) ;
#157 = EDGE_LOOP ( 'NONE', ( #216, #238 ) ) ;
#158 = VERTEX_POINT ( 'NONE', #54 ) ;
#159 =( NAMED_UNIT ( * ) SI_UNIT ( $, .STERADIAN. ) SOLID_ANGLE_UNIT ( ) );
#160 = ORIENTED_EDGE ( 'NONE', *, *, #101, .T. ) ;
#161 = APPROVAL_ROLE ( '' ) ;
#162 = CARTESIAN_POINT ( 'NONE',  ( 0.000000000000000000, 0.000000000000000000, 315.0000000000000000 ) ) ;
#163 = EDGE_CURVE ( 'NONE', #6, #135, #70, .T. ) ;
#164 = DESIGN_CONTEXT ( 'detailed design', #236, 'design' ) ;
#165 = CARTESIAN_POINT ( 'NONE',  ( 0.000000000000000000, 0.000000000000000000, 0.000000000000000000 ) ) ;
#166 = APPROVAL_STATUS ( 'not_yet_approved' ) ;
#167 = DIRECTION ( 'NONE',  ( -0.000000000000000000, -0.000000000000000000, -1.000000000000000000 ) ) ;
#168 = AXIS2_PLACEMENT_3D ( 'NONE', #222, #14, #204 ) ;
#169 = COORDINATED_UNIVERSAL_TIME_OFFSET ( 1, 0, .AHEAD. ) ;
#170 = CIRCLE ( 'NONE', #195, 9.000000000000000000 ) ;
#171 = FACE_OUTER_BOUND ( 'NONE', #3, .T. ) ;
#172 = EDGE_CURVE ( 'NONE', #1, #103, #170, .T. ) ;
#173 = CARTESIAN_POINT ( 'NONE',  ( 0.000000000000000000, 0.000000000000000000, 315.0000000000000000 ) ) ;
#174 = APPROVAL_DATE_TIME ( #105, #106 ) ;
#175 = APPROVAL ( #50, 'NEURÈENÝ' ) ;
#176 = ORIENTED_EDGE ( 'NONE', *, *, #23, .T. ) ;
#177 = AXIS2_PLACEMENT_3D ( 'NONE', #45, #205, #32 ) ;
#178 = EDGE_LOOP ( 'NONE', ( #18, #194 ) ) ;
#179 = ORIENTED_EDGE ( 'NONE', *, *, #201, .F. ) ;
#180 = CC_DESIGN_DATE_AND_TIME_ASSIGNMENT ( #26, #55, ( #31 ) ) ;
#181 = COORDINATED_UNIVERSAL_TIME_OFFSET ( 1, 0, .AHEAD. ) ;
#182 = VERTEX_POINT ( 'NONE', #206 ) ;
#183 = DIRECTION ( 'NONE',  ( 1.000000000000000000, 0.000000000000000000, 0.000000000000000000 ) ) ;
#184 = AXIS2_PLACEMENT_3D ( 'NONE', #15, #79, #30 ) ;
#185 = APPROVAL_STATUS ( 'not_yet_approved' ) ;
#186 = DIRECTION ( 'NONE',  ( -0.000000000000000000, -0.000000000000000000, -1.000000000000000000 ) ) ;
#187 = CALENDAR_DATE ( 2023, 12, 2 ) ;
#188 = CYLINDRICAL_SURFACE ( 'NONE', #59, 6.250000000000000000 ) ;
#189 = APPROVAL_ROLE ( '' ) ;
#190 = CARTESIAN_POINT ( 'NONE',  ( -6.250000000000000000, 0.000000000000000000, 315.0000000000000000 ) ) ;
#191 = CARTESIAN_POINT ( 'NONE',  ( -9.000000000000000000, 0.000000000000000000, 0.000000000000000000 ) ) ;
#192 = APPROVAL ( #185, 'NEURÈENÝ' ) ;
#193 = AXIS2_PLACEMENT_3D ( 'NONE', #173, #80, #183 ) ;
#194 = ORIENTED_EDGE ( 'NONE', *, *, #23, .F. ) ;
#195 = AXIS2_PLACEMENT_3D ( 'NONE', #165, #246, #129 ) ;
#196 = EDGE_LOOP ( 'NONE', ( #141, #139, #83, #19 ) ) ;
#197 = CIRCLE ( 'NONE', #91, 9.000000000000000000 ) ;
#198 = DIRECTION ( 'NONE',  ( 0.000000000000000000, 0.000000000000000000, 1.000000000000000000 ) ) ;
#199 = CALENDAR_DATE ( 2023, 12, 2 ) ;
#200 = ORIENTED_EDGE ( 'NONE', *, *, #163, .T. ) ;
#201 = EDGE_CURVE ( 'NONE', #71, #6, #149, .T. ) ;
#202 = CARTESIAN_POINT ( 'NONE',  ( 9.000000000000000000, 1.102182119232617714E-15, 7.000000000000000000 ) ) ;
#203 = APPROVAL_DATE_TIME ( #124, #175 ) ;
#204 = DIRECTION ( 'NONE',  ( 1.000000000000000000, 0.000000000000000000, 0.000000000000000000 ) ) ;
#205 = DIRECTION ( 'NONE',  ( 0.000000000000000000, 0.000000000000000000, 1.000000000000000000 ) ) ;
#206 = CARTESIAN_POINT ( 'NONE',  ( 6.250000000000000000, 7.654042494670957606E-16, 315.0000000000000000 ) ) ;
#207 = ADVANCED_BREP_SHAPE_REPRESENTATION ( '0a91', ( #21, #177 ), #217 ) ;
#208 = CYLINDRICAL_SURFACE ( 'NONE', #25, 6.250000000000000000 ) ;
#209 = DIRECTION ( 'NONE',  ( 0.000000000000000000, 0.000000000000000000, 1.000000000000000000 ) ) ;
#210 = FACE_OUTER_BOUND ( 'NONE', #116, .T. ) ;
#211 = ADVANCED_FACE ( 'NONE', ( #41, #210 ), #118, .T. ) ;
#212 = APPLICATION_CONTEXT ( 'configuration controlled 3d designs of mechanical parts and assemblies' ) ;
#213 = CARTESIAN_POINT ( 'NONE',  ( -6.250000000000000000, 0.000000000000000000, 7.000000000000000000 ) ) ;
#214 = EDGE_CURVE ( 'NONE', #39, #103, #152, .T. ) ;
#215 =( NAMED_UNIT ( * ) PLANE_ANGLE_UNIT ( ) SI_UNIT ( $, .RADIAN. ) );
#216 = ORIENTED_EDGE ( 'NONE', *, *, #72, .T. ) ;
#217 =( GEOMETRIC_REPRESENTATION_CONTEXT ( 3 ) GLOBAL_UNCERTAINTY_ASSIGNED_CONTEXT ( ( #9 ) ) GLOBAL_UNIT_ASSIGNED_CONTEXT ( ( #64, #215, #159 ) ) REPRESENTATION_CONTEXT ( 'NONE', 'WORKASPACE' ) );
#218 = PRODUCT_DEFINITION_FORMATION_WITH_SPECIFIED_SOURCE ( 'LIBOVOLNÝ', '', #122, .NOT_KNOWN. ) ;
#219 = PERSON_AND_ORGANIZATION ( #104, #242 ) ;
#220 = DIRECTION ( 'NONE',  ( 0.000000000000000000, 0.000000000000000000, 1.000000000000000000 ) ) ;
#221 = PERSON_AND_ORGANIZATION ( #104, #242 ) ;
#222 = CARTESIAN_POINT ( 'NONE',  ( 0.000000000000000000, 0.000000000000000000, 0.000000000000000000 ) ) ;
#223 = CIRCLE ( 'NONE', #168, 9.000000000000000000 ) ;
#224 = PERSON_AND_ORGANIZATION ( #104, #242 ) ;
#225 = CC_DESIGN_PERSON_AND_ORGANIZATION_ASSIGNMENT ( #221, #78, ( #234 ) ) ;
#226 = CYLINDRICAL_SURFACE ( 'NONE', #126, 9.000000000000000000 ) ;
#227 = CARTESIAN_POINT ( 'NONE',  ( 0.000000000000000000, 0.000000000000000000, 315.0000000000000000 ) ) ;
#228 = SHAPE_DEFINITION_REPRESENTATION ( #232, #207 ) ;
#229 = CLOSED_SHELL ( 'NONE', ( #37, #29, #253, #211, #12, #140, #44 ) ) ;
#230 = CC_DESIGN_PERSON_AND_ORGANIZATION_ASSIGNMENT ( #121, #28, ( #218 ) ) ;
#231 = DIRECTION ( 'NONE',  ( -0.000000000000000000, -0.000000000000000000, -1.000000000000000000 ) ) ;
#232 = PRODUCT_DEFINITION_SHAPE ( 'NONE', 'NONE',  #234 ) ;
#233 = ORIENTED_EDGE ( 'NONE', *, *, #172, .T. ) ;
#234 = PRODUCT_DEFINITION ( 'NEZNÁMÝ', '', #218, #164 ) ;
#235 = CARTESIAN_POINT ( 'NONE',  ( 0.000000000000000000, 0.000000000000000000, 7.000000000000000000 ) ) ;
#236 = APPLICATION_CONTEXT ( 'configuration controlled 3d designs of mechanical parts and assemblies' ) ;
#237 = ORIENTED_EDGE ( 'NONE', *, *, #62, .T. ) ;
#238 = ORIENTED_EDGE ( 'NONE', *, *, #66, .T. ) ;
#239 = MECHANICAL_CONTEXT ( 'NONE', #212, 'mechanical' ) ;
#240 = ORIENTED_EDGE ( 'NONE', *, *, #72, .F. ) ;
#241 = LOCAL_TIME ( 11, 54, 51.00000000000000000, #96 ) ;
#242 = ORGANIZATION ( 'NEURÈENÝ', 'NEURÈENÝ', '' ) ;
#243 = APPROVAL_PERSON_ORGANIZATION ( #94, #106, #189 ) ;
#244 = DATE_AND_TIME ( #110, #241 ) ;
#245 = DIRECTION ( 'NONE',  ( 1.000000000000000000, 0.000000000000000000, 0.000000000000000000 ) ) ;
#246 = DIRECTION ( 'NONE',  ( 0.000000000000000000, 0.000000000000000000, 1.000000000000000000 ) ) ;
#247 = COORDINATED_UNIVERSAL_TIME_OFFSET ( 1, 0, .AHEAD. ) ;
#248 = CC_DESIGN_PERSON_AND_ORGANIZATION_ASSIGNMENT ( #224, #13, ( #31 ) ) ;
#249 = DIRECTION ( 'NONE',  ( 0.000000000000000000, 0.000000000000000000, 1.000000000000000000 ) ) ;
#250 = PLANE ( 'NONE',  #16 ) ;
#251 = LOCAL_TIME ( 11, 54, 51.00000000000000000, #181 ) ;
#252 = FACE_OUTER_BOUND ( 'NONE', #138, .T. ) ;
#253 = ADVANCED_FACE ( 'NONE', ( #115 ), #82, .T. ) ;
#254 = DIRECTION ( 'NONE',  ( 1.000000000000000000, 0.000000000000000000, -0.000000000000000000 ) ) ;
#255 = PRODUCT_RELATED_PRODUCT_CATEGORY ( 'detail', '', ( #122 ) ) ;
ENDSEC;
END-ISO-10303-21;
