ISO-10303-21;
HEADER;
FILE_DESCRIPTION (( 'STEP AP203' ),
    '1' );
FILE_NAME ('835f.STEP',
    '2023-02-12T12:08:24',
    ( '' ),
    ( '' ),
    'SwSTEP 2.0',
    'SolidWorks 2019',
    '' );
FILE_SCHEMA (( 'CONFIG_CONTROL_DESIGN' ));
ENDSEC;

DATA;
#1 = AXIS2_PLACEMENT_3D ( 'NONE', #222, #7, #183 ) ;
#2 =( GEOMETRIC_REPRESENTATION_CONTEXT ( 3 ) GLOBAL_UNCERTAINTY_ASSIGNED_CONTEXT ( ( #166 ) ) GLOBAL_UNIT_ASSIGNED_CONTEXT ( ( #148, #92, #169 ) ) REPRESENTATION_CONTEXT ( 'NONE', 'WORKASPACE' ) );
#3 = ORIENTED_EDGE ( 'NONE', *, *, #20, .T. ) ;
#4 = CIRCLE ( 'NONE', #38, 3.250000000000000444 ) ;
#5 = ORIENTED_EDGE ( 'NONE', *, *, #184, .F. ) ;
#6 = ORIENTED_EDGE ( 'NONE', *, *, #168, .F. ) ;
#7 = DIRECTION ( 'NONE',  ( -0.000000000000000000, -0.000000000000000000, -1.000000000000000000 ) ) ;
#8 = ADVANCED_BREP_SHAPE_REPRESENTATION ( '835f', ( #216, #154 ), #2 ) ;
#9 = DIRECTION ( 'NONE',  ( 0.000000000000000000, 0.000000000000000000, 1.000000000000000000 ) ) ;
#10 = LINE ( 'NONE', #138, #107 ) ;
#11 = ADVANCED_FACE ( 'NONE', ( #29 ), #157, .T. ) ;
#12 = DIRECTION ( 'NONE',  ( 1.000000000000000000, 0.000000000000000000, 0.000000000000000000 ) ) ;
#13 = AXIS2_PLACEMENT_3D ( 'NONE', #206, #158, #87 ) ;
#14 = DIRECTION ( 'NONE',  ( 0.000000000000000000, 0.000000000000000000, 1.000000000000000000 ) ) ;
#15 = APPROVAL_DATE_TIME ( #249, #57 ) ;
#16 = CARTESIAN_POINT ( 'NONE',  ( 0.000000000000000000, 0.000000000000000000, 5.000000000000000000 ) ) ;
#17 = CARTESIAN_POINT ( 'NONE',  ( -3.250000000000000444, 0.000000000000000000, 160.0000000000000000 ) ) ;
#18 = APPROVAL_PERSON_ORGANIZATION ( #94, #57, #229 ) ;
#19 = APPROVAL ( #64, 'NEURÈENÝ' ) ;
#20 = EDGE_CURVE ( 'NONE', #41, #114, #46, .T. ) ;
#21 = CALENDAR_DATE ( 2023, 12, 2 ) ;
#22 = VECTOR ( 'NONE', #32, 1000.000000000000000 ) ;
#23 = APPROVAL_PERSON_ORGANIZATION ( #117, #232, #100 ) ;
#24 = ORIENTED_EDGE ( 'NONE', *, *, #178, .F. ) ;
#25 = APPLICATION_PROTOCOL_DEFINITION ( 'international standard', 'config_control_design', 1994, #251 ) ;
#26 = ORIENTED_EDGE ( 'NONE', *, *, #79, .F. ) ;
#27 = APPROVAL_STATUS ( 'not_yet_approved' ) ;
#28 = ORIENTED_EDGE ( 'NONE', *, *, #99, .F. ) ;
#29 = FACE_OUTER_BOUND ( 'NONE', #200, .T. ) ;
#30 = CARTESIAN_POINT ( 'NONE',  ( 0.000000000000000000, 0.000000000000000000, 0.000000000000000000 ) ) ;
#31 = AXIS2_PLACEMENT_3D ( 'NONE', #204, #221, #33 ) ;
#32 = DIRECTION ( 'NONE',  ( -0.000000000000000000, -0.000000000000000000, -1.000000000000000000 ) ) ;
#33 = DIRECTION ( 'NONE',  ( 1.000000000000000000, 0.000000000000000000, 0.000000000000000000 ) ) ;
#34 = LINE ( 'NONE', #140, #252 ) ;
#35 = LOCAL_TIME ( 13, 8, 24.00000000000000000, #205 ) ;
#36 = DIRECTION ( 'NONE',  ( -1.000000000000000000, 0.000000000000000000, 0.000000000000000000 ) ) ;
#37 = CC_DESIGN_DATE_AND_TIME_ASSIGNMENT ( #247, #159, ( #112 ) ) ;
#38 = AXIS2_PLACEMENT_3D ( 'NONE', #84, #164, #101 ) ;
#39 = EDGE_CURVE ( 'NONE', #236, #214, #4, .T. ) ;
#40 = PERSON_AND_ORGANIZATION_ROLE ( 'classification_officer' ) ;
#41 = VERTEX_POINT ( 'NONE', #246 ) ;
#42 = AXIS2_PLACEMENT_3D ( 'NONE', #141, #88, #162 ) ;
#43 = ORIENTED_EDGE ( 'NONE', *, *, #124, .T. ) ;
#44 = ORIENTED_EDGE ( 'NONE', *, *, #99, .T. ) ;
#45 = AXIS2_PLACEMENT_3D ( 'NONE', #144, #224, #68 ) ;
#46 = LINE ( 'NONE', #125, #22 ) ;
#47 = DIRECTION ( 'NONE',  ( 0.000000000000000000, 0.000000000000000000, 1.000000000000000000 ) ) ;
#48 = CARTESIAN_POINT ( 'NONE',  ( 0.000000000000000000, 0.000000000000000000, 160.0000000000000000 ) ) ;
#49 = CIRCLE ( 'NONE', #131, 3.250000000000000444 ) ;
#50 = FACE_OUTER_BOUND ( 'NONE', #58, .T. ) ;
#51 = CARTESIAN_POINT ( 'NONE',  ( 0.000000000000000000, 0.000000000000000000, 160.0000000000000000 ) ) ;
#52 = LOCAL_TIME ( 13, 8, 24.00000000000000000, #255 ) ;
#53 = CARTESIAN_POINT ( 'NONE',  ( -6.000000000000000888, 0.000000000000000000, 0.000000000000000000 ) ) ;
#54 = APPROVAL_PERSON_ORGANIZATION ( #243, #19, #189 ) ;
#55 = PERSON_AND_ORGANIZATION_ROLE ( 'creator' ) ;
#56 = ORIENTED_EDGE ( 'NONE', *, *, #143, .F. ) ;
#57 = APPROVAL ( #109, 'NEURÈENÝ' ) ;
#58 = EDGE_LOOP ( 'NONE', ( #28, #3, #215, #5 ) ) ;
#59 = ORIENTED_EDGE ( 'NONE', *, *, #143, .T. ) ;
#60 = LOCAL_TIME ( 13, 8, 24.00000000000000000, #89 ) ;
#61 = CYLINDRICAL_SURFACE ( 'NONE', #71, 3.250000000000000444 ) ;
#62 = CARTESIAN_POINT ( 'NONE',  ( 0.000000000000000000, 0.000000000000000000, 0.000000000000000000 ) ) ;
#63 = DIRECTION ( 'NONE',  ( 1.000000000000000000, 0.000000000000000000, 0.000000000000000000 ) ) ;
#64 = APPROVAL_STATUS ( 'not_yet_approved' ) ;
#65 = PLANE ( 'NONE',  #45 ) ;
#66 = APPROVAL_DATE_TIME ( #226, #19 ) ;
#67 = DIRECTION ( 'NONE',  ( -1.000000000000000000, 0.000000000000000000, 0.000000000000000000 ) ) ;
#68 = DIRECTION ( 'NONE',  ( 1.000000000000000000, 0.000000000000000000, -0.000000000000000000 ) ) ;
#69 = ADVANCED_FACE ( 'NONE', ( #50 ), #225, .T. ) ;
#70 = CARTESIAN_POINT ( 'NONE',  ( 0.000000000000000000, 0.000000000000000000, 5.000000000000000000 ) ) ;
#71 = AXIS2_PLACEMENT_3D ( 'NONE', #239, #104, #67 ) ;
#72 = ORGANIZATION ( 'NEURÈENÝ', 'NEURÈENÝ', '' ) ;
#73 = SECURITY_CLASSIFICATION_LEVEL ( 'unclassified' ) ;
#74 = DIRECTION ( 'NONE',  ( 0.000000000000000000, 0.000000000000000000, 1.000000000000000000 ) ) ;
#75 = PERSON_AND_ORGANIZATION ( #142, #72 ) ;
#76 = ADVANCED_FACE ( 'NONE', ( #145 ), #61, .T. ) ;
#77 = CC_DESIGN_PERSON_AND_ORGANIZATION_ASSIGNMENT ( #174, #78, ( #231 ) ) ;
#78 = PERSON_AND_ORGANIZATION_ROLE ( 'design_owner' ) ;
#79 = EDGE_CURVE ( 'NONE', #114, #234, #182, .T. ) ;
#80 = ORIENTED_EDGE ( 'NONE', *, *, #39, .T. ) ;
#81 = CALENDAR_DATE ( 2023, 12, 2 ) ;
#82 = ORIENTED_EDGE ( 'NONE', *, *, #124, .F. ) ;
#83 = CC_DESIGN_SECURITY_CLASSIFICATION ( #156, ( #137 ) ) ;
#84 = CARTESIAN_POINT ( 'NONE',  ( 0.000000000000000000, 0.000000000000000000, 160.0000000000000000 ) ) ;
#85 = ORIENTED_EDGE ( 'NONE', *, *, #161, .F. ) ;
#86 = PERSON_AND_ORGANIZATION_ROLE ( 'creator' ) ;
#87 = DIRECTION ( 'NONE',  ( 1.000000000000000000, 0.000000000000000000, 0.000000000000000000 ) ) ;
#88 = DIRECTION ( 'NONE',  ( -0.000000000000000000, -0.000000000000000000, -1.000000000000000000 ) ) ;
#89 = COORDINATED_UNIVERSAL_TIME_OFFSET ( 1, 0, .AHEAD. ) ;
#90 = DIRECTION ( 'NONE',  ( 0.000000000000000000, 0.000000000000000000, 1.000000000000000000 ) ) ;
#91 = SHAPE_DEFINITION_REPRESENTATION ( #172, #8 ) ;
#92 =( NAMED_UNIT ( * ) PLANE_ANGLE_UNIT ( ) SI_UNIT ( $, .RADIAN. ) );
#93 = PLANE ( 'NONE',  #187 ) ;
#94 = PERSON_AND_ORGANIZATION ( #142, #72 ) ;
#95 = EDGE_CURVE ( 'NONE', #236, #197, #34, .T. ) ;
#96 = AXIS2_PLACEMENT_3D ( 'NONE', #30, #9, #63 ) ;
#97 = ORIENTED_EDGE ( 'NONE', *, *, #132, .T. ) ;
#98 = ORIENTED_EDGE ( 'NONE', *, *, #95, .T. ) ;
#99 = EDGE_CURVE ( 'NONE', #41, #217, #150, .T. ) ;
#100 = APPROVAL_ROLE ( '' ) ;
#101 = DIRECTION ( 'NONE',  ( 1.000000000000000000, 0.000000000000000000, 0.000000000000000000 ) ) ;
#102 = AXIS2_PLACEMENT_3D ( 'NONE', #62, #47, #12 ) ;
#103 = DIRECTION ( 'NONE',  ( -0.000000000000000000, -0.000000000000000000, -1.000000000000000000 ) ) ;
#104 = DIRECTION ( 'NONE',  ( -0.000000000000000000, -0.000000000000000000, -1.000000000000000000 ) ) ;
#105 = DIRECTION ( 'NONE',  ( 0.000000000000000000, 0.000000000000000000, 1.000000000000000000 ) ) ;
#106 = LINE ( 'NONE', #207, #171 ) ;
#107 = VECTOR ( 'NONE', #242, 1000.000000000000000 ) ;
#108 = CALENDAR_DATE ( 2023, 12, 2 ) ;
#109 = APPROVAL_STATUS ( 'not_yet_approved' ) ;
#110 = AXIS2_PLACEMENT_3D ( 'NONE', #70, #193, #248 ) ;
#111 = DATE_AND_TIME ( #21, #153 ) ;
#112 = PRODUCT_DEFINITION ( 'NEZNÁMÝ', '', #137, #160 ) ;
#113 = CIRCLE ( 'NONE', #13, 3.250000000000000444 ) ;
#114 = VERTEX_POINT ( 'NONE', #180 ) ;
#115 = ORIENTED_EDGE ( 'NONE', *, *, #39, .F. ) ;
#116 = EDGE_LOOP ( 'NONE', ( #122, #80 ) ) ;
#117 = PERSON_AND_ORGANIZATION ( #142, #72 ) ;
#118 = CIRCLE ( 'NONE', #253, 6.000000000000000888 ) ;
#119 = CARTESIAN_POINT ( 'NONE',  ( 3.250000000000000444, 3.980102097228898231E-16, 5.000000000000000000 ) ) ;
#120 = DIRECTION ( 'NONE',  ( -0.000000000000000000, -0.000000000000000000, -1.000000000000000000 ) ) ;
#121 = DIRECTION ( 'NONE',  ( 1.000000000000000000, 0.000000000000000000, 0.000000000000000000 ) ) ;
#122 = ORIENTED_EDGE ( 'NONE', *, *, #178, .T. ) ;
#123 = PERSON_AND_ORGANIZATION ( #142, #72 ) ;
#124 = EDGE_CURVE ( 'NONE', #217, #41, #118, .T. ) ;
#125 = CARTESIAN_POINT ( 'NONE',  ( 6.000000000000000888, 7.347880794884120722E-16, 5.000000000000000000 ) ) ;
#126 = PLANE ( 'NONE',  #110 ) ;
#127 = CIRCLE ( 'NONE', #208, 3.250000000000000444 ) ;
#128 = PERSON_AND_ORGANIZATION ( #142, #72 ) ;
#129 = CC_DESIGN_DATE_AND_TIME_ASSIGNMENT ( #111, #194, ( #156 ) ) ;
#130 = EDGE_LOOP ( 'NONE', ( #115, #98, #97, #85 ) ) ;
#131 = AXIS2_PLACEMENT_3D ( 'NONE', #188, #90, #223 ) ;
#132 = EDGE_CURVE ( 'NONE', #197, #173, #113, .T. ) ;
#133 = ORIENTED_EDGE ( 'NONE', *, *, #161, .T. ) ;
#134 = MECHANICAL_CONTEXT ( 'NONE', #251, 'mechanical' ) ;
#135 = ORIENTED_EDGE ( 'NONE', *, *, #95, .F. ) ;
#136 = DATE_AND_TIME ( #81, #244 ) ;
#137 = PRODUCT_DEFINITION_FORMATION_WITH_SPECIFIED_SOURCE ( 'LIBOVOLNÝ', '', #231, .NOT_KNOWN. ) ;
#138 = CARTESIAN_POINT ( 'NONE',  ( -6.000000000000000888, 0.000000000000000000, 5.000000000000000000 ) ) ;
#139 = CARTESIAN_POINT ( 'NONE',  ( 0.000000000000000000, 0.000000000000000000, 0.000000000000000000 ) ) ;
#140 = CARTESIAN_POINT ( 'NONE',  ( 3.250000000000000444, 3.980102097228898231E-16, 160.0000000000000000 ) ) ;
#141 = CARTESIAN_POINT ( 'NONE',  ( 0.000000000000000000, 0.000000000000000000, 5.000000000000000000 ) ) ;
#142 = PERSON ( 'NEURÈENÝ', 'NEURÈENÝ', 'NEURÈENÝ', ('NEURÈENÝ'), ('NEURÈENÝ'), ('NEURÈENÝ') ) ;
#143 = EDGE_CURVE ( 'NONE', #234, #114, #163, .T. ) ;
#144 = CARTESIAN_POINT ( 'NONE',  ( 0.000000000000000000, 0.000000000000000000, 0.000000000000000000 ) ) ;
#145 = FACE_OUTER_BOUND ( 'NONE', #130, .T. ) ;
#146 = FACE_BOUND ( 'NONE', #237, .T. ) ;
#147 = CARTESIAN_POINT ( 'NONE',  ( -6.000000000000000888, 0.000000000000000000, 5.000000000000000000 ) ) ;
#148 =( LENGTH_UNIT ( ) NAMED_UNIT ( * ) SI_UNIT ( .MILLI., .METRE. ) );
#149 = CC_DESIGN_PERSON_AND_ORGANIZATION_ASSIGNMENT ( #128, #40, ( #156 ) ) ;
#150 = CIRCLE ( 'NONE', #31, 6.000000000000000888 ) ;
#151 = ORIENTED_EDGE ( 'NONE', *, *, #184, .T. ) ;
#152 = APPLICATION_PROTOCOL_DEFINITION ( 'international standard', 'config_control_design', 1994, #210 ) ;
#153 = LOCAL_TIME ( 13, 8, 24.00000000000000000, #230 ) ;
#154 = AXIS2_PLACEMENT_3D ( 'NONE', #139, #235, #181 ) ;
#155 = ORIENTED_EDGE ( 'NONE', *, *, #168, .T. ) ;
#156 = SECURITY_CLASSIFICATION ( '', '', #73 ) ;
#157 = CYLINDRICAL_SURFACE ( 'NONE', #1, 3.250000000000000444 ) ;
#158 = DIRECTION ( 'NONE',  ( 0.000000000000000000, 0.000000000000000000, 1.000000000000000000 ) ) ;
#159 = DATE_TIME_ROLE ( 'creation_date' ) ;
#160 = DESIGN_CONTEXT ( 'detailed design', #210, 'design' ) ;
#161 = EDGE_CURVE ( 'NONE', #214, #173, #106, .T. ) ;
#162 = DIRECTION ( 'NONE',  ( -1.000000000000000000, 0.000000000000000000, 0.000000000000000000 ) ) ;
#163 = CIRCLE ( 'NONE', #96, 6.000000000000000888 ) ;
#164 = DIRECTION ( 'NONE',  ( 0.000000000000000000, 0.000000000000000000, 1.000000000000000000 ) ) ;
#165 = CALENDAR_DATE ( 2023, 12, 2 ) ;
#166 = UNCERTAINTY_MEASURE_WITH_UNIT (LENGTH_MEASURE( 1.000000000000000082E-05 ), #148, 'distance_accuracy_value', 'NONE');
#167 = DIRECTION ( 'NONE',  ( -0.000000000000000000, -0.000000000000000000, -1.000000000000000000 ) ) ;
#168 = EDGE_CURVE ( 'NONE', #173, #197, #49, .T. ) ;
#169 =( NAMED_UNIT ( * ) SI_UNIT ( $, .STERADIAN. ) SOLID_ANGLE_UNIT ( ) );
#170 = FACE_OUTER_BOUND ( 'NONE', #218, .T. ) ;
#171 = VECTOR ( 'NONE', #103, 1000.000000000000000 ) ;
#172 = PRODUCT_DEFINITION_SHAPE ( 'NONE', 'NONE',  #112 ) ;
#173 = VERTEX_POINT ( 'NONE', #185 ) ;
#174 = PERSON_AND_ORGANIZATION ( #142, #72 ) ;
#175 = ORIENTED_EDGE ( 'NONE', *, *, #20, .F. ) ;
#176 = CC_DESIGN_APPROVAL ( #232, ( #112 ) ) ;
#177 = COORDINATED_UNIVERSAL_TIME_OFFSET ( 1, 0, .AHEAD. ) ;
#178 = EDGE_CURVE ( 'NONE', #214, #236, #127, .T. ) ;
#179 = EDGE_LOOP ( 'NONE', ( #175, #82, #151, #59 ) ) ;
#180 = CARTESIAN_POINT ( 'NONE',  ( 6.000000000000000888, 7.347880794884120722E-16, 0.000000000000000000 ) ) ;
#181 = DIRECTION ( 'NONE',  ( 1.000000000000000000, 0.000000000000000000, 0.000000000000000000 ) ) ;
#182 = CIRCLE ( 'NONE', #102, 6.000000000000000888 ) ;
#183 = DIRECTION ( 'NONE',  ( -1.000000000000000000, 0.000000000000000000, 0.000000000000000000 ) ) ;
#184 = EDGE_CURVE ( 'NONE', #217, #234, #10, .T. ) ;
#185 = CARTESIAN_POINT ( 'NONE',  ( -3.250000000000000444, 0.000000000000000000, 5.000000000000000000 ) ) ;
#186 = CARTESIAN_POINT ( 'NONE',  ( 0.000000000000000000, 0.000000000000000000, 5.000000000000000000 ) ) ;
#187 = AXIS2_PLACEMENT_3D ( 'NONE', #51, #74, #254 ) ;
#188 = CARTESIAN_POINT ( 'NONE',  ( 0.000000000000000000, 0.000000000000000000, 5.000000000000000000 ) ) ;
#189 = APPROVAL_ROLE ( '' ) ;
#190 = PRODUCT_RELATED_PRODUCT_CATEGORY ( 'detail', '', ( #231 ) ) ;
#191 = CC_DESIGN_PERSON_AND_ORGANIZATION_ASSIGNMENT ( #123, #86, ( #112 ) ) ;
#192 = CALENDAR_DATE ( 2023, 12, 2 ) ;
#193 = DIRECTION ( 'NONE',  ( 0.000000000000000000, 0.000000000000000000, 1.000000000000000000 ) ) ;
#194 = DATE_TIME_ROLE ( 'classification_date' ) ;
#195 = PERSON_AND_ORGANIZATION_ROLE ( 'design_supplier' ) ;
#196 = CC_DESIGN_APPROVAL ( #57, ( #156 ) ) ;
#197 = VERTEX_POINT ( 'NONE', #119 ) ;
#198 = CC_DESIGN_PERSON_AND_ORGANIZATION_ASSIGNMENT ( #75, #55, ( #137 ) ) ;
#199 = EDGE_LOOP ( 'NONE', ( #56, #26 ) ) ;
#200 = EDGE_LOOP ( 'NONE', ( #135, #24, #133, #155 ) ) ;
#201 = CC_DESIGN_APPROVAL ( #19, ( #137 ) ) ;
#202 = ADVANCED_FACE ( 'NONE', ( #203 ), #65, .F. ) ;
#203 = FACE_OUTER_BOUND ( 'NONE', #199, .T. ) ;
#204 = CARTESIAN_POINT ( 'NONE',  ( 0.000000000000000000, 0.000000000000000000, 5.000000000000000000 ) ) ;
#205 = COORDINATED_UNIVERSAL_TIME_OFFSET ( 1, 0, .AHEAD. ) ;
#206 = CARTESIAN_POINT ( 'NONE',  ( 0.000000000000000000, 0.000000000000000000, 5.000000000000000000 ) ) ;
#207 = CARTESIAN_POINT ( 'NONE',  ( -3.250000000000000444, 0.000000000000000000, 160.0000000000000000 ) ) ;
#208 = AXIS2_PLACEMENT_3D ( 'NONE', #48, #14, #121 ) ;
#209 = CARTESIAN_POINT ( 'NONE',  ( 3.250000000000000444, 3.980102097228898231E-16, 160.0000000000000000 ) ) ;
#210 = APPLICATION_CONTEXT ( 'configuration controlled 3d designs of mechanical parts and assemblies' ) ;
#211 = ADVANCED_FACE ( 'NONE', ( #227 ), #228, .T. ) ;
#212 = PERSON_AND_ORGANIZATION ( #142, #72 ) ;
#213 = ADVANCED_FACE ( 'NONE', ( #146, #170 ), #126, .T. ) ;
#214 = VERTEX_POINT ( 'NONE', #17 ) ;
#215 = ORIENTED_EDGE ( 'NONE', *, *, #79, .T. ) ;
#216 = MANIFOLD_SOLID_BREP ( 'Pøidat vysunutím3', #219 ) ;
#217 = VERTEX_POINT ( 'NONE', #147 ) ;
#218 = EDGE_LOOP ( 'NONE', ( #43, #44 ) ) ;
#219 = CLOSED_SHELL ( 'NONE', ( #76, #69, #211, #213, #202, #11, #245 ) ) ;
#220 = APPROVAL_DATE_TIME ( #136, #232 ) ;
#221 = DIRECTION ( 'NONE',  ( 0.000000000000000000, 0.000000000000000000, 1.000000000000000000 ) ) ;
#222 = CARTESIAN_POINT ( 'NONE',  ( 0.000000000000000000, 0.000000000000000000, 160.0000000000000000 ) ) ;
#223 = DIRECTION ( 'NONE',  ( 1.000000000000000000, 0.000000000000000000, 0.000000000000000000 ) ) ;
#224 = DIRECTION ( 'NONE',  ( 0.000000000000000000, 0.000000000000000000, 1.000000000000000000 ) ) ;
#225 = CYLINDRICAL_SURFACE ( 'NONE', #42, 6.000000000000000888 ) ;
#226 = DATE_AND_TIME ( #108, #35 ) ;
#227 = FACE_OUTER_BOUND ( 'NONE', #179, .T. ) ;
#228 = CYLINDRICAL_SURFACE ( 'NONE', #238, 6.000000000000000888 ) ;
#229 = APPROVAL_ROLE ( '' ) ;
#230 = COORDINATED_UNIVERSAL_TIME_OFFSET ( 1, 0, .AHEAD. ) ;
#231 = PRODUCT ( '835f', '835f', '', ( #134 ) ) ;
#232 = APPROVAL ( #27, 'NEURÈENÝ' ) ;
#233 = ORIENTED_EDGE ( 'NONE', *, *, #132, .F. ) ;
#234 = VERTEX_POINT ( 'NONE', #53 ) ;
#235 = DIRECTION ( 'NONE',  ( 0.000000000000000000, 0.000000000000000000, 1.000000000000000000 ) ) ;
#236 = VERTEX_POINT ( 'NONE', #209 ) ;
#237 = EDGE_LOOP ( 'NONE', ( #6, #233 ) ) ;
#238 = AXIS2_PLACEMENT_3D ( 'NONE', #16, #167, #36 ) ;
#239 = CARTESIAN_POINT ( 'NONE',  ( 0.000000000000000000, 0.000000000000000000, 160.0000000000000000 ) ) ;
#240 = DIRECTION ( 'NONE',  ( 1.000000000000000000, 0.000000000000000000, 0.000000000000000000 ) ) ;
#241 = CC_DESIGN_PERSON_AND_ORGANIZATION_ASSIGNMENT ( #212, #195, ( #137 ) ) ;
#242 = DIRECTION ( 'NONE',  ( -0.000000000000000000, -0.000000000000000000, -1.000000000000000000 ) ) ;
#243 = PERSON_AND_ORGANIZATION ( #142, #72 ) ;
#244 = LOCAL_TIME ( 13, 8, 24.00000000000000000, #177 ) ;
#245 = ADVANCED_FACE ( 'NONE', ( #250 ), #93, .T. ) ;
#246 = CARTESIAN_POINT ( 'NONE',  ( 6.000000000000000888, 7.347880794884120722E-16, 5.000000000000000000 ) ) ;
#247 = DATE_AND_TIME ( #165, #60 ) ;
#248 = DIRECTION ( 'NONE',  ( 1.000000000000000000, 0.000000000000000000, -0.000000000000000000 ) ) ;
#249 = DATE_AND_TIME ( #192, #52 ) ;
#250 = FACE_OUTER_BOUND ( 'NONE', #116, .T. ) ;
#251 = APPLICATION_CONTEXT ( 'configuration controlled 3d designs of mechanical parts and assemblies' ) ;
#252 = VECTOR ( 'NONE', #120, 1000.000000000000000 ) ;
#253 = AXIS2_PLACEMENT_3D ( 'NONE', #186, #105, #240 ) ;
#254 = DIRECTION ( 'NONE',  ( 1.000000000000000000, 0.000000000000000000, -0.000000000000000000 ) ) ;
#255 = COORDINATED_UNIVERSAL_TIME_OFFSET ( 1, 0, .AHEAD. ) ;
ENDSEC;
END-ISO-10303-21;
