ISO-10303-21;
HEADER;
FILE_DESCRIPTION (( 'STEP AP203' ),
    '1' );
FILE_NAME ('7489.STEP',
    '2023-02-12T12:09:26',
    ( '' ),
    ( '' ),
    'SwSTEP 2.0',
    'SolidWorks 2019',
    '' );
FILE_SCHEMA (( 'CONFIG_CONTROL_DESIGN' ));
ENDSEC;

DATA;
#1 = CC_DESIGN_PERSON_AND_ORGANIZATION_ASSIGNMENT ( #165, #77, ( #111 ) ) ;
#2 = EDGE_CURVE ( 'NONE', #135, #246, #63, .T. ) ;
#3 = AXIS2_PLACEMENT_3D ( 'NONE', #219, #204, #50 ) ;
#4 = ORIENTED_EDGE ( 'NONE', *, *, #242, .T. ) ;
#5 = EDGE_LOOP ( 'NONE', ( #119, #36 ) ) ;
#6 = APPROVAL ( #21, 'NEURÈENÝ' ) ;
#7 = DIRECTION ( 'NONE',  ( -1.000000000000000000, 0.000000000000000000, 0.000000000000000000 ) ) ;
#8 = LOCAL_TIME ( 13, 9, 26.00000000000000000, #235 ) ;
#9 = ORIENTED_EDGE ( 'NONE', *, *, #173, .F. ) ;
#10 = APPROVAL_DATE_TIME ( #196, #15 ) ;
#11 = EDGE_CURVE ( 'NONE', #182, #105, #121, .T. ) ;
#12 = FACE_OUTER_BOUND ( 'NONE', #22, .T. ) ;
#13 = PERSON_AND_ORGANIZATION ( #226, #211 ) ;
#14 = PLANE ( 'NONE',  #61 ) ;
#15 = APPROVAL ( #177, 'NEURÈENÝ' ) ;
#16 = DIRECTION ( 'NONE',  ( -0.000000000000000000, -0.000000000000000000, -1.000000000000000000 ) ) ;
#17 = CARTESIAN_POINT ( 'NONE',  ( -3.100000000000000089, 0.000000000000000000, 800.0000000000000000 ) ) ;
#18 = ORIENTED_EDGE ( 'NONE', *, *, #2, .F. ) ;
#19 = PERSON_AND_ORGANIZATION ( #226, #211 ) ;
#20 = ORIENTED_EDGE ( 'NONE', *, *, #11, .F. ) ;
#21 = APPROVAL_STATUS ( 'not_yet_approved' ) ;
#22 = EDGE_LOOP ( 'NONE', ( #223, #20 ) ) ;
#23 = CIRCLE ( 'NONE', #46, 3.100000000000000089 ) ;
#24 = CARTESIAN_POINT ( 'NONE',  ( 0.000000000000000000, 0.000000000000000000, 5.000000000000000000 ) ) ;
#25 = CYLINDRICAL_SURFACE ( 'NONE', #145, 6.000000000000000888 ) ;
#26 = CIRCLE ( 'NONE', #208, 3.100000000000000089 ) ;
#27 = LOCAL_TIME ( 13, 9, 26.00000000000000000, #127 ) ;
#28 = LINE ( 'NONE', #181, #201 ) ;
#29 = CARTESIAN_POINT ( 'NONE',  ( 6.000000000000000888, 7.347880794884120722E-16, 5.000000000000000000 ) ) ;
#30 = CALENDAR_DATE ( 2023, 12, 2 ) ;
#31 = ADVANCED_FACE ( 'NONE', ( #107, #240 ), #233, .T. ) ;
#32 = CARTESIAN_POINT ( 'NONE',  ( 3.100000000000000089, 3.796405077356794918E-16, 800.0000000000000000 ) ) ;
#33 = EDGE_LOOP ( 'NONE', ( #151, #154, #117, #83 ) ) ;
#34 = CARTESIAN_POINT ( 'NONE',  ( -6.000000000000000888, 0.000000000000000000, 0.000000000000000000 ) ) ;
#35 = COORDINATED_UNIVERSAL_TIME_OFFSET ( 1, 0, .AHEAD. ) ;
#36 = ORIENTED_EDGE ( 'NONE', *, *, #102, .F. ) ;
#37 = APPLICATION_PROTOCOL_DEFINITION ( 'international standard', 'config_control_design', 1994, #192 ) ;
#38 = AXIS2_PLACEMENT_3D ( 'NONE', #243, #16, #168 ) ;
#39 = CC_DESIGN_PERSON_AND_ORGANIZATION_ASSIGNMENT ( #19, #95, ( #139 ) ) ;
#40 = MANIFOLD_SOLID_BREP ( 'Pøidat vysunutím3', #215 ) ;
#41 = DIRECTION ( 'NONE',  ( -0.000000000000000000, -0.000000000000000000, -1.000000000000000000 ) ) ;
#42 = SHAPE_DEFINITION_REPRESENTATION ( #189, #237 ) ;
#43 = CARTESIAN_POINT ( 'NONE',  ( -3.100000000000000089, 0.000000000000000000, 5.000000000000000000 ) ) ;
#44 = CALENDAR_DATE ( 2023, 12, 2 ) ;
#45 = CC_DESIGN_PERSON_AND_ORGANIZATION_ASSIGNMENT ( #13, #184, ( #111 ) ) ;
#46 = AXIS2_PLACEMENT_3D ( 'NONE', #71, #178, #148 ) ;
#47 = APPROVAL_STATUS ( 'not_yet_approved' ) ;
#48 = DIRECTION ( 'NONE',  ( -0.000000000000000000, -0.000000000000000000, -1.000000000000000000 ) ) ;
#49 = ADVANCED_FACE ( 'NONE', ( #239 ), #25, .T. ) ;
#50 = DIRECTION ( 'NONE',  ( -1.000000000000000000, 0.000000000000000000, 0.000000000000000000 ) ) ;
#51 =( NAMED_UNIT ( * ) SI_UNIT ( $, .STERADIAN. ) SOLID_ANGLE_UNIT ( ) );
#52 =( GEOMETRIC_REPRESENTATION_CONTEXT ( 3 ) GLOBAL_UNCERTAINTY_ASSIGNED_CONTEXT ( ( #136 ) ) GLOBAL_UNIT_ASSIGNED_CONTEXT ( ( #78, #99, #51 ) ) REPRESENTATION_CONTEXT ( 'NONE', 'WORKASPACE' ) );
#53 = FACE_OUTER_BOUND ( 'NONE', #97, .T. ) ;
#54 = ORIENTED_EDGE ( 'NONE', *, *, #242, .F. ) ;
#55 = CIRCLE ( 'NONE', #101, 3.100000000000000089 ) ;
#56 = DIRECTION ( 'NONE',  ( 1.000000000000000000, 0.000000000000000000, -0.000000000000000000 ) ) ;
#57 = APPROVAL_ROLE ( '' ) ;
#58 = ORIENTED_EDGE ( 'NONE', *, *, #187, .T. ) ;
#59 = COORDINATED_UNIVERSAL_TIME_OFFSET ( 1, 0, .AHEAD. ) ;
#60 = EDGE_CURVE ( 'NONE', #64, #73, #26, .T. ) ;
#61 = AXIS2_PLACEMENT_3D ( 'NONE', #166, #70, #217 ) ;
#62 = APPLICATION_CONTEXT ( 'configuration controlled 3d designs of mechanical parts and assemblies' ) ;
#63 = CIRCLE ( 'NONE', #229, 6.000000000000000888 ) ;
#64 = VERTEX_POINT ( 'NONE', #43 ) ;
#65 = CARTESIAN_POINT ( 'NONE',  ( 0.000000000000000000, 0.000000000000000000, 5.000000000000000000 ) ) ;
#66 = APPROVAL_ROLE ( '' ) ;
#67 = EDGE_LOOP ( 'NONE', ( #54, #91, #171, #159 ) ) ;
#68 = CALENDAR_DATE ( 2023, 12, 2 ) ;
#69 = DATE_AND_TIME ( #30, #174 ) ;
#70 = DIRECTION ( 'NONE',  ( 0.000000000000000000, 0.000000000000000000, 1.000000000000000000 ) ) ;
#71 = CARTESIAN_POINT ( 'NONE',  ( 0.000000000000000000, 0.000000000000000000, 5.000000000000000000 ) ) ;
#72 = DIRECTION ( 'NONE',  ( 0.000000000000000000, 0.000000000000000000, 1.000000000000000000 ) ) ;
#73 = VERTEX_POINT ( 'NONE', #126 ) ;
#74 = DIRECTION ( 'NONE',  ( -0.000000000000000000, -0.000000000000000000, -1.000000000000000000 ) ) ;
#75 = MECHANICAL_CONTEXT ( 'NONE', #62, 'mechanical' ) ;
#76 = ORIENTED_EDGE ( 'NONE', *, *, #210, .F. ) ;
#77 = PERSON_AND_ORGANIZATION_ROLE ( 'design_supplier' ) ;
#78 =( LENGTH_UNIT ( ) NAMED_UNIT ( * ) SI_UNIT ( .MILLI., .METRE. ) );
#79 = EDGE_CURVE ( 'NONE', #185, #251, #255, .T. ) ;
#80 = EDGE_CURVE ( 'NONE', #135, #182, #180, .T. ) ;
#81 = VECTOR ( 'NONE', #92, 1000.000000000000000 ) ;
#82 = ORIENTED_EDGE ( 'NONE', *, *, #138, .F. ) ;
#83 = ORIENTED_EDGE ( 'NONE', *, *, #207, .T. ) ;
#84 = APPROVAL_PERSON_ORGANIZATION ( #186, #6, #253 ) ;
#85 = CARTESIAN_POINT ( 'NONE',  ( 0.000000000000000000, 0.000000000000000000, 0.000000000000000000 ) ) ;
#86 = DIRECTION ( 'NONE',  ( 1.000000000000000000, 0.000000000000000000, 0.000000000000000000 ) ) ;
#87 = VECTOR ( 'NONE', #116, 1000.000000000000000 ) ;
#88 = CYLINDRICAL_SURFACE ( 'NONE', #38, 3.100000000000000089 ) ;
#89 = DIRECTION ( 'NONE',  ( 1.000000000000000000, 0.000000000000000000, 0.000000000000000000 ) ) ;
#90 = DIRECTION ( 'NONE',  ( 0.000000000000000000, 0.000000000000000000, 1.000000000000000000 ) ) ;
#91 = ORIENTED_EDGE ( 'NONE', *, *, #79, .F. ) ;
#92 = DIRECTION ( 'NONE',  ( -0.000000000000000000, -0.000000000000000000, -1.000000000000000000 ) ) ;
#93 = CARTESIAN_POINT ( 'NONE',  ( 6.000000000000000888, 7.347880794884120722E-16, 0.000000000000000000 ) ) ;
#94 = ORIENTED_EDGE ( 'NONE', *, *, #80, .T. ) ;
#95 = PERSON_AND_ORGANIZATION_ROLE ( 'classification_officer' ) ;
#96 = AXIS2_PLACEMENT_3D ( 'NONE', #85, #176, #86 ) ;
#97 = EDGE_LOOP ( 'NONE', ( #231, #228 ) ) ;
#98 = ADVANCED_FACE ( 'NONE', ( #12 ), #118, .F. ) ;
#99 =( NAMED_UNIT ( * ) PLANE_ANGLE_UNIT ( ) SI_UNIT ( $, .RADIAN. ) );
#100 = PRODUCT_DEFINITION ( 'NEZNÁMÝ', '', #111, #110 ) ;
#101 = AXIS2_PLACEMENT_3D ( 'NONE', #198, #72, #179 ) ;
#102 = EDGE_CURVE ( 'NONE', #73, #64, #23, .T. ) ;
#103 = CIRCLE ( 'NONE', #190, 6.000000000000000888 ) ;
#104 = PRODUCT ( '7489', '7489', '', ( #75 ) ) ;
#105 = VERTEX_POINT ( 'NONE', #34 ) ;
#106 = CC_DESIGN_DATE_AND_TIME_ASSIGNMENT ( #146, #216, ( #100 ) ) ;
#107 = FACE_BOUND ( 'NONE', #5, .T. ) ;
#108 = LOCAL_TIME ( 13, 9, 26.00000000000000000, #153 ) ;
#109 = DIRECTION ( 'NONE',  ( 1.000000000000000000, 0.000000000000000000, 0.000000000000000000 ) ) ;
#110 = DESIGN_CONTEXT ( 'detailed design', #192, 'design' ) ;
#111 = PRODUCT_DEFINITION_FORMATION_WITH_SPECIFIED_SOURCE ( 'LIBOVOLNÝ', '', #104, .NOT_KNOWN. ) ;
#112 = PERSON_AND_ORGANIZATION_ROLE ( 'creator' ) ;
#113 = CARTESIAN_POINT ( 'NONE',  ( 0.000000000000000000, 0.000000000000000000, 5.000000000000000000 ) ) ;
#114 = LINE ( 'NONE', #183, #81 ) ;
#115 = PERSON_AND_ORGANIZATION ( #226, #211 ) ;
#116 = DIRECTION ( 'NONE',  ( -0.000000000000000000, -0.000000000000000000, -1.000000000000000000 ) ) ;
#117 = ORIENTED_EDGE ( 'NONE', *, *, #138, .T. ) ;
#118 = PLANE ( 'NONE',  #123 ) ;
#119 = ORIENTED_EDGE ( 'NONE', *, *, #60, .F. ) ;
#120 = DIRECTION ( 'NONE',  ( 0.000000000000000000, 0.000000000000000000, 1.000000000000000000 ) ) ;
#121 = CIRCLE ( 'NONE', #96, 6.000000000000000888 ) ;
#122 = APPROVAL_PERSON_ORGANIZATION ( #213, #15, #66 ) ;
#123 = AXIS2_PLACEMENT_3D ( 'NONE', #131, #224, #56 ) ;
#124 = ADVANCED_FACE ( 'NONE', ( #134 ), #247, .T. ) ;
#125 = CARTESIAN_POINT ( 'NONE',  ( 0.000000000000000000, 0.000000000000000000, 5.000000000000000000 ) ) ;
#126 = CARTESIAN_POINT ( 'NONE',  ( 3.100000000000000089, 3.796405077356794918E-16, 5.000000000000000000 ) ) ;
#127 = COORDINATED_UNIVERSAL_TIME_OFFSET ( 1, 0, .AHEAD. ) ;
#128 = CALENDAR_DATE ( 2023, 12, 2 ) ;
#129 = CARTESIAN_POINT ( 'NONE',  ( 0.000000000000000000, 0.000000000000000000, 0.000000000000000000 ) ) ;
#130 = CC_DESIGN_APPROVAL ( #15, ( #139 ) ) ;
#131 = CARTESIAN_POINT ( 'NONE',  ( 0.000000000000000000, 0.000000000000000000, 0.000000000000000000 ) ) ;
#132 = CYLINDRICAL_SURFACE ( 'NONE', #163, 6.000000000000000888 ) ;
#133 = ORIENTED_EDGE ( 'NONE', *, *, #2, .T. ) ;
#134 = FACE_OUTER_BOUND ( 'NONE', #67, .T. ) ;
#135 = VERTEX_POINT ( 'NONE', #29 ) ;
#136 = UNCERTAINTY_MEASURE_WITH_UNIT (LENGTH_MEASURE( 1.000000000000000082E-05 ), #78, 'distance_accuracy_value', 'NONE');
#137 = CIRCLE ( 'NONE', #161, 6.000000000000000888 ) ;
#138 = EDGE_CURVE ( 'NONE', #246, #105, #114, .T. ) ;
#139 = SECURITY_CLASSIFICATION ( '', '', #244 ) ;
#140 = ADVANCED_FACE ( 'NONE', ( #164 ), #88, .T. ) ;
#141 = VECTOR ( 'NONE', #74, 1000.000000000000000 ) ;
#142 = DIRECTION ( 'NONE',  ( 1.000000000000000000, 0.000000000000000000, -0.000000000000000000 ) ) ;
#143 = DATE_TIME_ROLE ( 'classification_date' ) ;
#144 = DIRECTION ( 'NONE',  ( 0.000000000000000000, 0.000000000000000000, 1.000000000000000000 ) ) ;
#145 = AXIS2_PLACEMENT_3D ( 'NONE', #212, #41, #7 ) ;
#146 = DATE_AND_TIME ( #225, #108 ) ;
#147 = DIRECTION ( 'NONE',  ( 0.000000000000000000, 0.000000000000000000, 1.000000000000000000 ) ) ;
#148 = DIRECTION ( 'NONE',  ( 1.000000000000000000, 0.000000000000000000, 0.000000000000000000 ) ) ;
#149 = CARTESIAN_POINT ( 'NONE',  ( -6.000000000000000888, 0.000000000000000000, 5.000000000000000000 ) ) ;
#150 = CARTESIAN_POINT ( 'NONE',  ( 0.000000000000000000, 0.000000000000000000, 5.000000000000000000 ) ) ;
#151 = ORIENTED_EDGE ( 'NONE', *, *, #80, .F. ) ;
#152 = DIRECTION ( 'NONE',  ( 1.000000000000000000, 0.000000000000000000, 0.000000000000000000 ) ) ;
#153 = COORDINATED_UNIVERSAL_TIME_OFFSET ( 1, 0, .AHEAD. ) ;
#154 = ORIENTED_EDGE ( 'NONE', *, *, #187, .F. ) ;
#155 = PERSON_AND_ORGANIZATION ( #226, #211 ) ;
#156 = CARTESIAN_POINT ( 'NONE',  ( 0.000000000000000000, 0.000000000000000000, 0.000000000000000000 ) ) ;
#157 = CC_DESIGN_DATE_AND_TIME_ASSIGNMENT ( #160, #143, ( #139 ) ) ;
#158 = AXIS2_PLACEMENT_3D ( 'NONE', #65, #214, #142 ) ;
#159 = ORIENTED_EDGE ( 'NONE', *, *, #60, .T. ) ;
#160 = DATE_AND_TIME ( #44, #8 ) ;
#161 = AXIS2_PLACEMENT_3D ( 'NONE', #129, #90, #250 ) ;
#162 = CARTESIAN_POINT ( 'NONE',  ( 0.000000000000000000, 0.000000000000000000, 800.0000000000000000 ) ) ;
#163 = AXIS2_PLACEMENT_3D ( 'NONE', #150, #202, #170 ) ;
#164 = FACE_OUTER_BOUND ( 'NONE', #206, .T. ) ;
#165 = PERSON_AND_ORGANIZATION ( #226, #211 ) ;
#166 = CARTESIAN_POINT ( 'NONE',  ( 0.000000000000000000, 0.000000000000000000, 800.0000000000000000 ) ) ;
#167 = ORIENTED_EDGE ( 'NONE', *, *, #102, .T. ) ;
#168 = DIRECTION ( 'NONE',  ( -1.000000000000000000, 0.000000000000000000, 0.000000000000000000 ) ) ;
#169 = APPLICATION_PROTOCOL_DEFINITION ( 'international standard', 'config_control_design', 1994, #62 ) ;
#170 = DIRECTION ( 'NONE',  ( -1.000000000000000000, 0.000000000000000000, 0.000000000000000000 ) ) ;
#171 = ORIENTED_EDGE ( 'NONE', *, *, #173, .T. ) ;
#172 = APPROVAL_DATE_TIME ( #197, #194 ) ;
#173 = EDGE_CURVE ( 'NONE', #185, #64, #28, .T. ) ;
#174 = LOCAL_TIME ( 13, 9, 26.00000000000000000, #59 ) ;
#175 = DIRECTION ( 'NONE',  ( 1.000000000000000000, 0.000000000000000000, 0.000000000000000000 ) ) ;
#176 = DIRECTION ( 'NONE',  ( 0.000000000000000000, 0.000000000000000000, 1.000000000000000000 ) ) ;
#177 = APPROVAL_STATUS ( 'not_yet_approved' ) ;
#178 = DIRECTION ( 'NONE',  ( 0.000000000000000000, 0.000000000000000000, 1.000000000000000000 ) ) ;
#179 = DIRECTION ( 'NONE',  ( 1.000000000000000000, 0.000000000000000000, 0.000000000000000000 ) ) ;
#180 = LINE ( 'NONE', #200, #141 ) ;
#181 = CARTESIAN_POINT ( 'NONE',  ( -3.100000000000000089, 0.000000000000000000, 800.0000000000000000 ) ) ;
#182 = VERTEX_POINT ( 'NONE', #93 ) ;
#183 = CARTESIAN_POINT ( 'NONE',  ( -6.000000000000000888, 0.000000000000000000, 5.000000000000000000 ) ) ;
#184 = PERSON_AND_ORGANIZATION_ROLE ( 'creator' ) ;
#185 = VERTEX_POINT ( 'NONE', #17 ) ;
#186 = PERSON_AND_ORGANIZATION ( #226, #211 ) ;
#187 = EDGE_CURVE ( 'NONE', #246, #135, #103, .T. ) ;
#188 = CC_DESIGN_PERSON_AND_ORGANIZATION_ASSIGNMENT ( #205, #252, ( #104 ) ) ;
#189 = PRODUCT_DEFINITION_SHAPE ( 'NONE', 'NONE',  #100 ) ;
#190 = AXIS2_PLACEMENT_3D ( 'NONE', #113, #147, #221 ) ;
#191 = ADVANCED_FACE ( 'NONE', ( #241 ), #132, .T. ) ;
#192 = APPLICATION_CONTEXT ( 'configuration controlled 3d designs of mechanical parts and assemblies' ) ;
#193 = DIRECTION ( 'NONE',  ( 0.000000000000000000, 0.000000000000000000, 1.000000000000000000 ) ) ;
#194 = APPROVAL ( #47, 'NEURÈENÝ' ) ;
#195 = DIRECTION ( 'NONE',  ( 0.000000000000000000, 0.000000000000000000, 1.000000000000000000 ) ) ;
#196 = DATE_AND_TIME ( #68, #27 ) ;
#197 = DATE_AND_TIME ( #128, #254 ) ;
#198 = CARTESIAN_POINT ( 'NONE',  ( 0.000000000000000000, 0.000000000000000000, 800.0000000000000000 ) ) ;
#199 = CC_DESIGN_APPROVAL ( #6, ( #100 ) ) ;
#200 = CARTESIAN_POINT ( 'NONE',  ( 6.000000000000000888, 7.347880794884120722E-16, 5.000000000000000000 ) ) ;
#201 = VECTOR ( 'NONE', #48, 1000.000000000000000 ) ;
#202 = DIRECTION ( 'NONE',  ( -0.000000000000000000, -0.000000000000000000, -1.000000000000000000 ) ) ;
#203 = EDGE_LOOP ( 'NONE', ( #58, #133 ) ) ;
#204 = DIRECTION ( 'NONE',  ( -0.000000000000000000, -0.000000000000000000, -1.000000000000000000 ) ) ;
#205 = PERSON_AND_ORGANIZATION ( #226, #211 ) ;
#206 = EDGE_LOOP ( 'NONE', ( #76, #4, #167, #9 ) ) ;
#207 = EDGE_CURVE ( 'NONE', #105, #182, #137, .T. ) ;
#208 = AXIS2_PLACEMENT_3D ( 'NONE', #24, #193, #175 ) ;
#209 = AXIS2_PLACEMENT_3D ( 'NONE', #156, #120, #89 ) ;
#210 = EDGE_CURVE ( 'NONE', #251, #185, #55, .T. ) ;
#211 = ORGANIZATION ( 'NEURÈENÝ', 'NEURÈENÝ', '' ) ;
#212 = CARTESIAN_POINT ( 'NONE',  ( 0.000000000000000000, 0.000000000000000000, 5.000000000000000000 ) ) ;
#213 = PERSON_AND_ORGANIZATION ( #226, #211 ) ;
#214 = DIRECTION ( 'NONE',  ( 0.000000000000000000, 0.000000000000000000, 1.000000000000000000 ) ) ;
#215 = CLOSED_SHELL ( 'NONE', ( #140, #49, #191, #31, #98, #124, #236 ) ) ;
#216 = DATE_TIME_ROLE ( 'creation_date' ) ;
#217 = DIRECTION ( 'NONE',  ( 1.000000000000000000, 0.000000000000000000, -0.000000000000000000 ) ) ;
#218 = EDGE_LOOP ( 'NONE', ( #18, #94, #232, #82 ) ) ;
#219 = CARTESIAN_POINT ( 'NONE',  ( 0.000000000000000000, 0.000000000000000000, 800.0000000000000000 ) ) ;
#220 = CARTESIAN_POINT ( 'NONE',  ( 3.100000000000000089, 3.796405077356794918E-16, 800.0000000000000000 ) ) ;
#221 = DIRECTION ( 'NONE',  ( 1.000000000000000000, 0.000000000000000000, 0.000000000000000000 ) ) ;
#222 = CC_DESIGN_APPROVAL ( #194, ( #111 ) ) ;
#223 = ORIENTED_EDGE ( 'NONE', *, *, #207, .F. ) ;
#224 = DIRECTION ( 'NONE',  ( 0.000000000000000000, 0.000000000000000000, 1.000000000000000000 ) ) ;
#225 = CALENDAR_DATE ( 2023, 12, 2 ) ;
#226 = PERSON ( 'NEURÈENÝ', 'NEURÈENÝ', 'NEURÈENÝ', ('NEURÈENÝ'), ('NEURÈENÝ'), ('NEURÈENÝ') ) ;
#227 = CC_DESIGN_PERSON_AND_ORGANIZATION_ASSIGNMENT ( #155, #112, ( #100 ) ) ;
#228 = ORIENTED_EDGE ( 'NONE', *, *, #210, .T. ) ;
#229 = AXIS2_PLACEMENT_3D ( 'NONE', #125, #144, #109 ) ;
#230 = AXIS2_PLACEMENT_3D ( 'NONE', #162, #195, #152 ) ;
#231 = ORIENTED_EDGE ( 'NONE', *, *, #79, .T. ) ;
#232 = ORIENTED_EDGE ( 'NONE', *, *, #11, .T. ) ;
#233 = PLANE ( 'NONE',  #158 ) ;
#234 = APPROVAL_PERSON_ORGANIZATION ( #115, #194, #57 ) ;
#235 = COORDINATED_UNIVERSAL_TIME_OFFSET ( 1, 0, .AHEAD. ) ;
#236 = ADVANCED_FACE ( 'NONE', ( #53 ), #14, .T. ) ;
#237 = ADVANCED_BREP_SHAPE_REPRESENTATION ( '7489', ( #40, #209 ), #52 ) ;
#238 = CC_DESIGN_SECURITY_CLASSIFICATION ( #139, ( #111 ) ) ;
#239 = FACE_OUTER_BOUND ( 'NONE', #218, .T. ) ;
#240 = FACE_OUTER_BOUND ( 'NONE', #203, .T. ) ;
#241 = FACE_OUTER_BOUND ( 'NONE', #33, .T. ) ;
#242 = EDGE_CURVE ( 'NONE', #251, #73, #245, .T. ) ;
#243 = CARTESIAN_POINT ( 'NONE',  ( 0.000000000000000000, 0.000000000000000000, 800.0000000000000000 ) ) ;
#244 = SECURITY_CLASSIFICATION_LEVEL ( 'unclassified' ) ;
#245 = LINE ( 'NONE', #32, #87 ) ;
#246 = VERTEX_POINT ( 'NONE', #149 ) ;
#247 = CYLINDRICAL_SURFACE ( 'NONE', #3, 3.100000000000000089 ) ;
#248 = APPROVAL_DATE_TIME ( #69, #6 ) ;
#249 = PRODUCT_RELATED_PRODUCT_CATEGORY ( 'detail', '', ( #104 ) ) ;
#250 = DIRECTION ( 'NONE',  ( 1.000000000000000000, 0.000000000000000000, 0.000000000000000000 ) ) ;
#251 = VERTEX_POINT ( 'NONE', #220 ) ;
#252 = PERSON_AND_ORGANIZATION_ROLE ( 'design_owner' ) ;
#253 = APPROVAL_ROLE ( '' ) ;
#254 = LOCAL_TIME ( 13, 9, 26.00000000000000000, #35 ) ;
#255 = CIRCLE ( 'NONE', #230, 3.100000000000000089 ) ;
ENDSEC;
END-ISO-10303-21;
