ISO-10303-21;
HEADER;
FILE_DESCRIPTION (( 'STEP AP203' ),
    '1' );
FILE_NAME ('c1df.STEP',
    '2023-02-12T11:34:32',
    ( '' ),
    ( '' ),
    'SwSTEP 2.0',
    'SolidWorks 2019',
    '' );
FILE_SCHEMA (( 'CONFIG_CONTROL_DESIGN' ));
ENDSEC;

DATA;
#1 = DIRECTION ( 'NONE',  ( 1.000000000000000000, 0.000000000000000000, 0.000000000000000000 ) ) ;
#2 = ORIENTED_EDGE ( 'NONE', *, *, #124, .F. ) ;
#3 = ORIENTED_EDGE ( 'NONE', *, *, #108, .F. ) ;
#4 = CC_DESIGN_APPROVAL ( #87, ( #130 ) ) ;
#5 = ORIENTED_EDGE ( 'NONE', *, *, #136, .T. ) ;
#6 = ORIENTED_EDGE ( 'NONE', *, *, #239, .F. ) ;
#7 = COORDINATED_UNIVERSAL_TIME_OFFSET ( 1, 0, .AHEAD. ) ;
#8 = ADVANCED_FACE ( 'NONE', ( #81 ), #105, .T. ) ;
#9 = CARTESIAN_POINT ( 'NONE',  ( 7.000000000000000000, 8.572527594031473190E-16, 5.000000000000000000 ) ) ;
#10 = AXIS2_PLACEMENT_3D ( 'NONE', #147, #231, #150 ) ;
#11 = CARTESIAN_POINT ( 'NONE',  ( 0.000000000000000000, 0.000000000000000000, 5.000000000000000000 ) ) ;
#12 = DIRECTION ( 'NONE',  ( 1.000000000000000000, 0.000000000000000000, 0.000000000000000000 ) ) ;
#13 =( NAMED_UNIT ( * ) PLANE_ANGLE_UNIT ( ) SI_UNIT ( $, .RADIAN. ) );
#14 = VECTOR ( 'NONE', #139, 1000.000000000000000 ) ;
#15 = DIRECTION ( 'NONE',  ( -1.000000000000000000, 0.000000000000000000, 0.000000000000000000 ) ) ;
#16 = DIRECTION ( 'NONE',  ( 1.000000000000000000, 0.000000000000000000, 0.000000000000000000 ) ) ;
#17 = COORDINATED_UNIVERSAL_TIME_OFFSET ( 1, 0, .AHEAD. ) ;
#18 = DIRECTION ( 'NONE',  ( -1.000000000000000000, 0.000000000000000000, 0.000000000000000000 ) ) ;
#19 = ORIENTED_EDGE ( 'NONE', *, *, #239, .T. ) ;
#20 = EDGE_LOOP ( 'NONE', ( #237, #107 ) ) ;
#21 = DIRECTION ( 'NONE',  ( 0.000000000000000000, 0.000000000000000000, 1.000000000000000000 ) ) ;
#22 = ADVANCED_FACE ( 'NONE', ( #157 ), #45, .T. ) ;
#23 = VECTOR ( 'NONE', #96, 1000.000000000000000 ) ;
#24 = DIRECTION ( 'NONE',  ( 0.000000000000000000, 0.000000000000000000, 1.000000000000000000 ) ) ;
#25 = APPROVAL ( #103, 'NEURÈENÝ' ) ;
#26 = DIRECTION ( 'NONE',  ( 0.000000000000000000, 0.000000000000000000, 1.000000000000000000 ) ) ;
#27 = APPLICATION_CONTEXT ( 'configuration controlled 3d designs of mechanical parts and assemblies' ) ;
#28 = CARTESIAN_POINT ( 'NONE',  ( 0.000000000000000000, 0.000000000000000000, 800.0000000000000000 ) ) ;
#29 = ADVANCED_BREP_SHAPE_REPRESENTATION ( 'c1df', ( #126, #128 ), #63 ) ;
#30 = CARTESIAN_POINT ( 'NONE',  ( -7.000000000000000000, 0.000000000000000000, 5.000000000000000000 ) ) ;
#31 = DIRECTION ( 'NONE',  ( 0.000000000000000000, 0.000000000000000000, 1.000000000000000000 ) ) ;
#32 = DIRECTION ( 'NONE',  ( 0.000000000000000000, 0.000000000000000000, 1.000000000000000000 ) ) ;
#33 = CARTESIAN_POINT ( 'NONE',  ( 0.000000000000000000, 0.000000000000000000, 0.000000000000000000 ) ) ;
#34 = PERSON_AND_ORGANIZATION ( #176, #206 ) ;
#35 = CARTESIAN_POINT ( 'NONE',  ( 0.000000000000000000, 0.000000000000000000, 5.000000000000000000 ) ) ;
#36 = CIRCLE ( 'NONE', #106, 4.500000000000000888 ) ;
#37 = LOCAL_TIME ( 12, 34, 32.00000000000000000, #58 ) ;
#38 = PERSON_AND_ORGANIZATION ( #176, #206 ) ;
#39 = CARTESIAN_POINT ( 'NONE',  ( 0.000000000000000000, 0.000000000000000000, 0.000000000000000000 ) ) ;
#40 = PRODUCT_DEFINITION ( 'NEZNÁMÝ', '', #142, #173 ) ;
#41 = APPLICATION_PROTOCOL_DEFINITION ( 'international standard', 'config_control_design', 1994, #27 ) ;
#42 = DIRECTION ( 'NONE',  ( -0.000000000000000000, -0.000000000000000000, -1.000000000000000000 ) ) ;
#43 = AXIS2_PLACEMENT_3D ( 'NONE', #35, #197, #64 ) ;
#44 = APPROVAL_ROLE ( '' ) ;
#45 = CYLINDRICAL_SURFACE ( 'NONE', #56, 7.000000000000000000 ) ;
#46 = EDGE_CURVE ( 'NONE', #189, #167, #88, .T. ) ;
#47 = ORIENTED_EDGE ( 'NONE', *, *, #230, .F. ) ;
#48 = ORIENTED_EDGE ( 'NONE', *, *, #194, .F. ) ;
#49 = CIRCLE ( 'NONE', #178, 7.000000000000000000 ) ;
#50 = ORIENTED_EDGE ( 'NONE', *, *, #230, .T. ) ;
#51 = FACE_OUTER_BOUND ( 'NONE', #110, .T. ) ;
#52 = LINE ( 'NONE', #228, #98 ) ;
#53 = AXIS2_PLACEMENT_3D ( 'NONE', #33, #129, #208 ) ;
#54 = CC_DESIGN_PERSON_AND_ORGANIZATION_ASSIGNMENT ( #196, #74, ( #142 ) ) ;
#55 = CYLINDRICAL_SURFACE ( 'NONE', #78, 4.500000000000000888 ) ;
#56 = AXIS2_PLACEMENT_3D ( 'NONE', #181, #42, #18 ) ;
#57 = AXIS2_PLACEMENT_3D ( 'NONE', #203, #26, #86 ) ;
#58 = COORDINATED_UNIVERSAL_TIME_OFFSET ( 1, 0, .AHEAD. ) ;
#59 = DIRECTION ( 'NONE',  ( -0.000000000000000000, -0.000000000000000000, -1.000000000000000000 ) ) ;
#60 = PRODUCT_DEFINITION_SHAPE ( 'NONE', 'NONE',  #40 ) ;
#61 = DIRECTION ( 'NONE',  ( -1.000000000000000000, 0.000000000000000000, 0.000000000000000000 ) ) ;
#62 = CIRCLE ( 'NONE', #205, 4.500000000000000888 ) ;
#63 =( GEOMETRIC_REPRESENTATION_CONTEXT ( 3 ) GLOBAL_UNCERTAINTY_ASSIGNED_CONTEXT ( ( #199 ) ) GLOBAL_UNIT_ASSIGNED_CONTEXT ( ( #172, #13, #116 ) ) REPRESENTATION_CONTEXT ( 'NONE', 'WORKASPACE' ) );
#64 = DIRECTION ( 'NONE',  ( 1.000000000000000000, 0.000000000000000000, 0.000000000000000000 ) ) ;
#65 = CALENDAR_DATE ( 2023, 12, 2 ) ;
#66 = DIRECTION ( 'NONE',  ( 1.000000000000000000, 0.000000000000000000, 0.000000000000000000 ) ) ;
#67 = CARTESIAN_POINT ( 'NONE',  ( 7.000000000000000000, 8.572527594031473190E-16, 0.000000000000000000 ) ) ;
#68 = ORIENTED_EDGE ( 'NONE', *, *, #92, .T. ) ;
#69 = APPROVAL_STATUS ( 'not_yet_approved' ) ;
#70 = CARTESIAN_POINT ( 'NONE',  ( -4.500000000000000888, 0.000000000000000000, 800.0000000000000000 ) ) ;
#71 = ORIENTED_EDGE ( 'NONE', *, *, #102, .F. ) ;
#72 = VECTOR ( 'NONE', #198, 1000.000000000000000 ) ;
#73 = APPROVAL_STATUS ( 'not_yet_approved' ) ;
#74 = PERSON_AND_ORGANIZATION_ROLE ( 'creator' ) ;
#75 = CC_DESIGN_PERSON_AND_ORGANIZATION_ASSIGNMENT ( #201, #158, ( #130 ) ) ;
#76 = PERSON_AND_ORGANIZATION ( #176, #206 ) ;
#77 = AXIS2_PLACEMENT_3D ( 'NONE', #39, #177, #1 ) ;
#78 = AXIS2_PLACEMENT_3D ( 'NONE', #211, #170, #15 ) ;
#79 = LINE ( 'NONE', #155, #14 ) ;
#80 = MECHANICAL_CONTEXT ( 'NONE', #113, 'mechanical' ) ;
#81 = FACE_OUTER_BOUND ( 'NONE', #146, .T. ) ;
#82 = VERTEX_POINT ( 'NONE', #83 ) ;
#83 = CARTESIAN_POINT ( 'NONE',  ( 4.500000000000000888, 5.510910596163089556E-16, 5.000000000000000000 ) ) ;
#84 = DIRECTION ( 'NONE',  ( 0.000000000000000000, 0.000000000000000000, 1.000000000000000000 ) ) ;
#85 = VERTEX_POINT ( 'NONE', #132 ) ;
#86 = DIRECTION ( 'NONE',  ( 1.000000000000000000, 0.000000000000000000, -0.000000000000000000 ) ) ;
#87 = APPROVAL ( #69, 'NEURÈENÝ' ) ;
#88 = CIRCLE ( 'NONE', #188, 7.000000000000000000 ) ;
#89 = EDGE_LOOP ( 'NONE', ( #71, #48, #184, #68 ) ) ;
#90 = APPROVAL_PERSON_ORGANIZATION ( #180, #87, #168 ) ;
#91 = ORIENTED_EDGE ( 'NONE', *, *, #159, .T. ) ;
#92 = EDGE_CURVE ( 'NONE', #85, #82, #121, .T. ) ;
#93 = FACE_OUTER_BOUND ( 'NONE', #89, .T. ) ;
#94 = AXIS2_PLACEMENT_3D ( 'NONE', #28, #24, #190 ) ;
#95 = AXIS2_PLACEMENT_3D ( 'NONE', #248, #32, #12 ) ;
#96 = DIRECTION ( 'NONE',  ( -0.000000000000000000, -0.000000000000000000, -1.000000000000000000 ) ) ;
#97 = DATE_TIME_ROLE ( 'creation_date' ) ;
#98 = VECTOR ( 'NONE', #212, 1000.000000000000000 ) ;
#99 = APPROVAL_DATE_TIME ( #117, #232 ) ;
#100 = CARTESIAN_POINT ( 'NONE',  ( 4.500000000000000888, 5.510910596163089556E-16, 800.0000000000000000 ) ) ;
#101 = CALENDAR_DATE ( 2023, 12, 2 ) ;
#102 = EDGE_CURVE ( 'NONE', #162, #82, #216, .T. ) ;
#103 = APPROVAL_STATUS ( 'not_yet_approved' ) ;
#104 = COORDINATED_UNIVERSAL_TIME_OFFSET ( 1, 0, .AHEAD. ) ;
#105 = CYLINDRICAL_SURFACE ( 'NONE', #246, 4.500000000000000888 ) ;
#106 = AXIS2_PLACEMENT_3D ( 'NONE', #174, #119, #217 ) ;
#107 = ORIENTED_EDGE ( 'NONE', *, *, #148, .F. ) ;
#108 = EDGE_CURVE ( 'NONE', #162, #143, #36, .T. ) ;
#109 = ORIENTED_EDGE ( 'NONE', *, *, #108, .T. ) ;
#110 = EDGE_LOOP ( 'NONE', ( #179, #109 ) ) ;
#111 = CARTESIAN_POINT ( 'NONE',  ( 0.000000000000000000, 0.000000000000000000, 5.000000000000000000 ) ) ;
#112 = CARTESIAN_POINT ( 'NONE',  ( -4.500000000000000888, 0.000000000000000000, 800.0000000000000000 ) ) ;
#113 = APPLICATION_CONTEXT ( 'configuration controlled 3d designs of mechanical parts and assemblies' ) ;
#114 = CC_DESIGN_PERSON_AND_ORGANIZATION_ASSIGNMENT ( #34, #156, ( #131 ) ) ;
#115 = LINE ( 'NONE', #112, #23 ) ;
#116 =( NAMED_UNIT ( * ) SI_UNIT ( $, .STERADIAN. ) SOLID_ANGLE_UNIT ( ) );
#117 = DATE_AND_TIME ( #213, #37 ) ;
#118 = APPROVAL_DATE_TIME ( #252, #25 ) ;
#119 = DIRECTION ( 'NONE',  ( 0.000000000000000000, 0.000000000000000000, 1.000000000000000000 ) ) ;
#120 = PERSON_AND_ORGANIZATION_ROLE ( 'creator' ) ;
#121 = CIRCLE ( 'NONE', #43, 4.500000000000000888 ) ;
#122 = CIRCLE ( 'NONE', #95, 4.500000000000000888 ) ;
#123 = PLANE ( 'NONE',  #57 ) ;
#124 = EDGE_CURVE ( 'NONE', #167, #189, #134, .T. ) ;
#125 = CALENDAR_DATE ( 2023, 12, 2 ) ;
#126 = MANIFOLD_SOLID_BREP ( 'Pøidat vysunutím3', #209 ) ;
#127 = PLANE ( 'NONE',  #94 ) ;
#128 = AXIS2_PLACEMENT_3D ( 'NONE', #253, #21, #255 ) ;
#129 = DIRECTION ( 'NONE',  ( 0.000000000000000000, 0.000000000000000000, 1.000000000000000000 ) ) ;
#130 = SECURITY_CLASSIFICATION ( '', '', #138 ) ;
#131 = PRODUCT ( 'c1df', 'c1df', '', ( #80 ) ) ;
#132 = CARTESIAN_POINT ( 'NONE',  ( -4.500000000000000888, 0.000000000000000000, 5.000000000000000000 ) ) ;
#133 = DIRECTION ( 'NONE',  ( 0.000000000000000000, 0.000000000000000000, 1.000000000000000000 ) ) ;
#134 = CIRCLE ( 'NONE', #77, 7.000000000000000000 ) ;
#135 = PERSON_AND_ORGANIZATION ( #176, #206 ) ;
#136 = EDGE_CURVE ( 'NONE', #191, #189, #79, .T. ) ;
#137 = EDGE_LOOP ( 'NONE', ( #6, #47, #5, #207 ) ) ;
#138 = SECURITY_CLASSIFICATION_LEVEL ( 'unclassified' ) ;
#139 = DIRECTION ( 'NONE',  ( -0.000000000000000000, -0.000000000000000000, -1.000000000000000000 ) ) ;
#140 = FACE_BOUND ( 'NONE', #20, .T. ) ;
#141 = VERTEX_POINT ( 'NONE', #9 ) ;
#142 = PRODUCT_DEFINITION_FORMATION_WITH_SPECIFIED_SOURCE ( 'LIBOVOLNÝ', '', #131, .NOT_KNOWN. ) ;
#143 = VERTEX_POINT ( 'NONE', #70 ) ;
#144 = DIRECTION ( 'NONE',  ( 0.000000000000000000, 0.000000000000000000, 1.000000000000000000 ) ) ;
#145 = APPLICATION_PROTOCOL_DEFINITION ( 'international standard', 'config_control_design', 1994, #113 ) ;
#146 = EDGE_LOOP ( 'NONE', ( #3, #165, #238, #204 ) ) ;
#147 = CARTESIAN_POINT ( 'NONE',  ( 0.000000000000000000, 0.000000000000000000, 5.000000000000000000 ) ) ;
#148 = EDGE_CURVE ( 'NONE', #82, #85, #62, .T. ) ;
#149 = CYLINDRICAL_SURFACE ( 'NONE', #10, 7.000000000000000000 ) ;
#150 = DIRECTION ( 'NONE',  ( -1.000000000000000000, 0.000000000000000000, 0.000000000000000000 ) ) ;
#151 = LOCAL_TIME ( 12, 34, 32.00000000000000000, #214 ) ;
#152 = ADVANCED_FACE ( 'NONE', ( #51 ), #127, .T. ) ;
#153 = APPROVAL_ROLE ( '' ) ;
#154 = CC_DESIGN_PERSON_AND_ORGANIZATION_ASSIGNMENT ( #135, #120, ( #40 ) ) ;
#155 = CARTESIAN_POINT ( 'NONE',  ( -7.000000000000000000, 0.000000000000000000, 5.000000000000000000 ) ) ;
#156 = PERSON_AND_ORGANIZATION_ROLE ( 'design_owner' ) ;
#157 = FACE_OUTER_BOUND ( 'NONE', #137, .T. ) ;
#158 = PERSON_AND_ORGANIZATION_ROLE ( 'classification_officer' ) ;
#159 = EDGE_CURVE ( 'NONE', #141, #191, #235, .T. ) ;
#160 = CC_DESIGN_APPROVAL ( #232, ( #142 ) ) ;
#161 = CALENDAR_DATE ( 2023, 12, 2 ) ;
#162 = VERTEX_POINT ( 'NONE', #243 ) ;
#163 = DATE_AND_TIME ( #161, #192 ) ;
#164 = DIRECTION ( 'NONE',  ( 1.000000000000000000, 0.000000000000000000, 0.000000000000000000 ) ) ;
#165 = ORIENTED_EDGE ( 'NONE', *, *, #102, .T. ) ;
#166 = CARTESIAN_POINT ( 'NONE',  ( 0.000000000000000000, 0.000000000000000000, 5.000000000000000000 ) ) ;
#167 = VERTEX_POINT ( 'NONE', #67 ) ;
#168 = APPROVAL_ROLE ( '' ) ;
#169 = EDGE_LOOP ( 'NONE', ( #185, #2 ) ) ;
#170 = DIRECTION ( 'NONE',  ( -0.000000000000000000, -0.000000000000000000, -1.000000000000000000 ) ) ;
#171 = CC_DESIGN_PERSON_AND_ORGANIZATION_ASSIGNMENT ( #38, #240, ( #142 ) ) ;
#172 =( LENGTH_UNIT ( ) NAMED_UNIT ( * ) SI_UNIT ( .MILLI., .METRE. ) );
#173 = DESIGN_CONTEXT ( 'detailed design', #27, 'design' ) ;
#174 = CARTESIAN_POINT ( 'NONE',  ( 0.000000000000000000, 0.000000000000000000, 800.0000000000000000 ) ) ;
#175 = CC_DESIGN_DATE_AND_TIME_ASSIGNMENT ( #220, #187, ( #130 ) ) ;
#176 = PERSON ( 'NEURÈENÝ', 'NEURÈENÝ', 'NEURÈENÝ', ('NEURÈENÝ'), ('NEURÈENÝ'), ('NEURÈENÝ') ) ;
#177 = DIRECTION ( 'NONE',  ( 0.000000000000000000, 0.000000000000000000, 1.000000000000000000 ) ) ;
#178 = AXIS2_PLACEMENT_3D ( 'NONE', #111, #31, #16 ) ;
#179 = ORIENTED_EDGE ( 'NONE', *, *, #194, .T. ) ;
#180 = PERSON_AND_ORGANIZATION ( #176, #206 ) ;
#181 = CARTESIAN_POINT ( 'NONE',  ( 0.000000000000000000, 0.000000000000000000, 5.000000000000000000 ) ) ;
#182 = EDGE_LOOP ( 'NONE', ( #50, #91 ) ) ;
#183 = SHAPE_DEFINITION_REPRESENTATION ( #60, #29 ) ;
#184 = ORIENTED_EDGE ( 'NONE', *, *, #251, .T. ) ;
#185 = ORIENTED_EDGE ( 'NONE', *, *, #46, .F. ) ;
#186 = ADVANCED_FACE ( 'NONE', ( #140, #221 ), #123, .T. ) ;
#187 = DATE_TIME_ROLE ( 'classification_date' ) ;
#188 = AXIS2_PLACEMENT_3D ( 'NONE', #202, #133, #66 ) ;
#189 = VERTEX_POINT ( 'NONE', #241 ) ;
#190 = DIRECTION ( 'NONE',  ( 1.000000000000000000, 0.000000000000000000, -0.000000000000000000 ) ) ;
#191 = VERTEX_POINT ( 'NONE', #30 ) ;
#192 = LOCAL_TIME ( 12, 34, 32.00000000000000000, #7 ) ;
#193 = EDGE_LOOP ( 'NONE', ( #227, #19, #224, #254 ) ) ;
#194 = EDGE_CURVE ( 'NONE', #143, #162, #122, .T. ) ;
#195 = FACE_OUTER_BOUND ( 'NONE', #193, .T. ) ;
#196 = PERSON_AND_ORGANIZATION ( #176, #206 ) ;
#197 = DIRECTION ( 'NONE',  ( 0.000000000000000000, 0.000000000000000000, 1.000000000000000000 ) ) ;
#198 = DIRECTION ( 'NONE',  ( -0.000000000000000000, -0.000000000000000000, -1.000000000000000000 ) ) ;
#199 = UNCERTAINTY_MEASURE_WITH_UNIT (LENGTH_MEASURE( 1.000000000000000082E-05 ), #172, 'distance_accuracy_value', 'NONE');
#200 = LOCAL_TIME ( 12, 34, 32.00000000000000000, #104 ) ;
#201 = PERSON_AND_ORGANIZATION ( #176, #206 ) ;
#202 = CARTESIAN_POINT ( 'NONE',  ( 0.000000000000000000, 0.000000000000000000, 0.000000000000000000 ) ) ;
#203 = CARTESIAN_POINT ( 'NONE',  ( 0.000000000000000000, 0.000000000000000000, 5.000000000000000000 ) ) ;
#204 = ORIENTED_EDGE ( 'NONE', *, *, #251, .F. ) ;
#205 = AXIS2_PLACEMENT_3D ( 'NONE', #166, #144, #225 ) ;
#206 = ORGANIZATION ( 'NEURÈENÝ', 'NEURÈENÝ', '' ) ;
#207 = ORIENTED_EDGE ( 'NONE', *, *, #46, .T. ) ;
#208 = DIRECTION ( 'NONE',  ( 1.000000000000000000, 0.000000000000000000, -0.000000000000000000 ) ) ;
#209 = CLOSED_SHELL ( 'NONE', ( #8, #218, #22, #186, #222, #226, #152 ) ) ;
#210 = CC_DESIGN_DATE_AND_TIME_ASSIGNMENT ( #234, #97, ( #40 ) ) ;
#211 = CARTESIAN_POINT ( 'NONE',  ( 0.000000000000000000, 0.000000000000000000, 800.0000000000000000 ) ) ;
#212 = DIRECTION ( 'NONE',  ( -0.000000000000000000, -0.000000000000000000, -1.000000000000000000 ) ) ;
#213 = CALENDAR_DATE ( 2023, 12, 2 ) ;
#214 = COORDINATED_UNIVERSAL_TIME_OFFSET ( 1, 0, .AHEAD. ) ;
#215 = CC_DESIGN_SECURITY_CLASSIFICATION ( #130, ( #142 ) ) ;
#216 = LINE ( 'NONE', #100, #72 ) ;
#217 = DIRECTION ( 'NONE',  ( 1.000000000000000000, 0.000000000000000000, 0.000000000000000000 ) ) ;
#218 = ADVANCED_FACE ( 'NONE', ( #195 ), #149, .T. ) ;
#219 = APPROVAL_PERSON_ORGANIZATION ( #76, #25, #44 ) ;
#220 = DATE_AND_TIME ( #125, #200 ) ;
#221 = FACE_OUTER_BOUND ( 'NONE', #182, .T. ) ;
#222 = ADVANCED_FACE ( 'NONE', ( #229 ), #245, .F. ) ;
#223 = AXIS2_PLACEMENT_3D ( 'NONE', #11, #84, #164 ) ;
#224 = ORIENTED_EDGE ( 'NONE', *, *, #124, .T. ) ;
#225 = DIRECTION ( 'NONE',  ( 1.000000000000000000, 0.000000000000000000, 0.000000000000000000 ) ) ;
#226 = ADVANCED_FACE ( 'NONE', ( #93 ), #55, .T. ) ;
#227 = ORIENTED_EDGE ( 'NONE', *, *, #159, .F. ) ;
#228 = CARTESIAN_POINT ( 'NONE',  ( 7.000000000000000000, 8.572527594031473190E-16, 5.000000000000000000 ) ) ;
#229 = FACE_OUTER_BOUND ( 'NONE', #169, .T. ) ;
#230 = EDGE_CURVE ( 'NONE', #191, #141, #49, .T. ) ;
#231 = DIRECTION ( 'NONE',  ( -0.000000000000000000, -0.000000000000000000, -1.000000000000000000 ) ) ;
#232 = APPROVAL ( #73, 'NEURÈENÝ' ) ;
#233 = CARTESIAN_POINT ( 'NONE',  ( 0.000000000000000000, 0.000000000000000000, 800.0000000000000000 ) ) ;
#234 = DATE_AND_TIME ( #101, #151 ) ;
#235 = CIRCLE ( 'NONE', #223, 7.000000000000000000 ) ;
#236 = APPROVAL_PERSON_ORGANIZATION ( #250, #232, #153 ) ;
#237 = ORIENTED_EDGE ( 'NONE', *, *, #92, .F. ) ;
#238 = ORIENTED_EDGE ( 'NONE', *, *, #148, .T. ) ;
#239 = EDGE_CURVE ( 'NONE', #141, #167, #52, .T. ) ;
#240 = PERSON_AND_ORGANIZATION_ROLE ( 'design_supplier' ) ;
#241 = CARTESIAN_POINT ( 'NONE',  ( -7.000000000000000000, 0.000000000000000000, 0.000000000000000000 ) ) ;
#242 = APPROVAL_DATE_TIME ( #163, #87 ) ;
#243 = CARTESIAN_POINT ( 'NONE',  ( 4.500000000000000888, 5.510910596163089556E-16, 800.0000000000000000 ) ) ;
#244 = LOCAL_TIME ( 12, 34, 32.00000000000000000, #17 ) ;
#245 = PLANE ( 'NONE',  #53 ) ;
#246 = AXIS2_PLACEMENT_3D ( 'NONE', #233, #59, #61 ) ;
#247 = CC_DESIGN_APPROVAL ( #25, ( #40 ) ) ;
#248 = CARTESIAN_POINT ( 'NONE',  ( 0.000000000000000000, 0.000000000000000000, 800.0000000000000000 ) ) ;
#249 = PRODUCT_RELATED_PRODUCT_CATEGORY ( 'detail', '', ( #131 ) ) ;
#250 = PERSON_AND_ORGANIZATION ( #176, #206 ) ;
#251 = EDGE_CURVE ( 'NONE', #143, #85, #115, .T. ) ;
#252 = DATE_AND_TIME ( #65, #244 ) ;
#253 = CARTESIAN_POINT ( 'NONE',  ( 0.000000000000000000, 0.000000000000000000, 0.000000000000000000 ) ) ;
#254 = ORIENTED_EDGE ( 'NONE', *, *, #136, .F. ) ;
#255 = DIRECTION ( 'NONE',  ( 1.000000000000000000, 0.000000000000000000, 0.000000000000000000 ) ) ;
ENDSEC;
END-ISO-10303-21;
