ISO-10303-21;
HEADER;
FILE_DESCRIPTION (( 'STEP AP203' ),
    '1' );
FILE_NAME ('950a.STEP',
    '2023-02-12T11:48:49',
    ( '' ),
    ( '' ),
    'SwSTEP 2.0',
    'SolidWorks 2019',
    '' );
FILE_SCHEMA (( 'CONFIG_CONTROL_DESIGN' ));
ENDSEC;

DATA;
#1 = DIRECTION ( 'NONE',  ( -1.000000000000000000, 0.000000000000000000, 0.000000000000000000 ) ) ;
#2 = AXIS2_PLACEMENT_3D ( 'NONE', #244, #45, #43 ) ;
#3 = APPLICATION_CONTEXT ( 'configuration controlled 3d designs of mechanical parts and assemblies' ) ;
#4 = COORDINATED_UNIVERSAL_TIME_OFFSET ( 1, 0, .AHEAD. ) ;
#5 = DATE_AND_TIME ( #183, #199 ) ;
#6 = AXIS2_PLACEMENT_3D ( 'NONE', #113, #217, #216 ) ;
#7 = LINE ( 'NONE', #57, #178 ) ;
#8 = DATE_AND_TIME ( #229, #106 ) ;
#9 = ORIENTED_EDGE ( 'NONE', *, *, #176, .T. ) ;
#10 = PERSON_AND_ORGANIZATION_ROLE ( 'design_supplier' ) ;
#11 = LOCAL_TIME ( 12, 48, 49.00000000000000000, #231 ) ;
#12 = VERTEX_POINT ( 'NONE', #211 ) ;
#13 = CARTESIAN_POINT ( 'NONE',  ( 0.000000000000000000, 0.000000000000000000, 5.000000000000000000 ) ) ;
#14 = CYLINDRICAL_SURFACE ( 'NONE', #105, 4.000000000000000000 ) ;
#15 = LINE ( 'NONE', #97, #240 ) ;
#16 = DIRECTION ( 'NONE',  ( -0.000000000000000000, -0.000000000000000000, -1.000000000000000000 ) ) ;
#17 = DIRECTION ( 'NONE',  ( 0.000000000000000000, 0.000000000000000000, 1.000000000000000000 ) ) ;
#18 =( GEOMETRIC_REPRESENTATION_CONTEXT ( 3 ) GLOBAL_UNCERTAINTY_ASSIGNED_CONTEXT ( ( #227 ) ) GLOBAL_UNIT_ASSIGNED_CONTEXT ( ( #119, #201, #200 ) ) REPRESENTATION_CONTEXT ( 'NONE', 'WORKASPACE' ) );
#19 = DIRECTION ( 'NONE',  ( 1.000000000000000000, 0.000000000000000000, -0.000000000000000000 ) ) ;
#20 = DIRECTION ( 'NONE',  ( 0.000000000000000000, 0.000000000000000000, 1.000000000000000000 ) ) ;
#21 = APPROVAL_ROLE ( '' ) ;
#22 = AXIS2_PLACEMENT_3D ( 'NONE', #174, #131, #250 ) ;
#23 = CC_DESIGN_PERSON_AND_ORGANIZATION_ASSIGNMENT ( #87, #111, ( #122 ) ) ;
#24 = COORDINATED_UNIVERSAL_TIME_OFFSET ( 1, 0, .AHEAD. ) ;
#25 = PERSON_AND_ORGANIZATION ( #162, #230 ) ;
#26 = CIRCLE ( 'NONE', #218, 7.000000000000000000 ) ;
#27 = COORDINATED_UNIVERSAL_TIME_OFFSET ( 1, 0, .AHEAD. ) ;
#28 = CIRCLE ( 'NONE', #126, 4.000000000000000000 ) ;
#29 = ORIENTED_EDGE ( 'NONE', *, *, #30, .F. ) ;
#30 = EDGE_CURVE ( 'NONE', #53, #112, #7, .T. ) ;
#31 = ORIENTED_EDGE ( 'NONE', *, *, #90, .T. ) ;
#32 = VERTEX_POINT ( 'NONE', #194 ) ;
#33 = ADVANCED_FACE ( 'NONE', ( #215 ), #14, .T. ) ;
#34 = CC_DESIGN_SECURITY_CLASSIFICATION ( #219, ( #122 ) ) ;
#35 = CARTESIAN_POINT ( 'NONE',  ( 0.000000000000000000, 0.000000000000000000, 0.000000000000000000 ) ) ;
#36 = DIRECTION ( 'NONE',  ( -0.000000000000000000, -0.000000000000000000, -1.000000000000000000 ) ) ;
#37 = CARTESIAN_POINT ( 'NONE',  ( -7.000000000000000000, 0.000000000000000000, 0.000000000000000000 ) ) ;
#38 = APPROVAL_PERSON_ORGANIZATION ( #226, #166, #207 ) ;
#39 = DIRECTION ( 'NONE',  ( 0.000000000000000000, 0.000000000000000000, 1.000000000000000000 ) ) ;
#40 = CARTESIAN_POINT ( 'NONE',  ( 0.000000000000000000, 0.000000000000000000, 5.000000000000000000 ) ) ;
#41 = CC_DESIGN_DATE_AND_TIME_ASSIGNMENT ( #143, #62, ( #94 ) ) ;
#42 = DATE_AND_TIME ( #179, #144 ) ;
#43 = DIRECTION ( 'NONE',  ( 1.000000000000000000, 0.000000000000000000, -0.000000000000000000 ) ) ;
#44 = EDGE_CURVE ( 'NONE', #53, #32, #70, .T. ) ;
#45 = DIRECTION ( 'NONE',  ( 0.000000000000000000, 0.000000000000000000, 1.000000000000000000 ) ) ;
#46 = PERSON_AND_ORGANIZATION ( #162, #230 ) ;
#47 = EDGE_CURVE ( 'NONE', #169, #112, #26, .T. ) ;
#48 = ORIENTED_EDGE ( 'NONE', *, *, #54, .F. ) ;
#49 = AXIS2_PLACEMENT_3D ( 'NONE', #222, #20, #19 ) ;
#50 = DESIGN_CONTEXT ( 'detailed design', #3, 'design' ) ;
#51 = EDGE_LOOP ( 'NONE', ( #213, #88, #69, #29 ) ) ;
#52 = APPROVAL_ROLE ( '' ) ;
#53 = VERTEX_POINT ( 'NONE', #74 ) ;
#54 = EDGE_CURVE ( 'NONE', #112, #169, #79, .T. ) ;
#55 = VERTEX_POINT ( 'NONE', #153 ) ;
#56 = PRODUCT ( '950a', '950a', '', ( #205 ) ) ;
#57 = CARTESIAN_POINT ( 'NONE',  ( -7.000000000000000000, 0.000000000000000000, 5.000000000000000000 ) ) ;
#58 = DIRECTION ( 'NONE',  ( 1.000000000000000000, 0.000000000000000000, 0.000000000000000000 ) ) ;
#59 = PRODUCT_RELATED_PRODUCT_CATEGORY ( 'detail', '', ( #56 ) ) ;
#60 = DIRECTION ( 'NONE',  ( 0.000000000000000000, 0.000000000000000000, 1.000000000000000000 ) ) ;
#61 = CARTESIAN_POINT ( 'NONE',  ( 0.000000000000000000, 0.000000000000000000, 250.0000000000000000 ) ) ;
#62 = DATE_TIME_ROLE ( 'creation_date' ) ;
#63 = VECTOR ( 'NONE', #36, 1000.000000000000000 ) ;
#64 = PLANE ( 'NONE',  #49 ) ;
#65 = CARTESIAN_POINT ( 'NONE',  ( 0.000000000000000000, 0.000000000000000000, 0.000000000000000000 ) ) ;
#66 = CC_DESIGN_PERSON_AND_ORGANIZATION_ASSIGNMENT ( #73, #10, ( #122 ) ) ;
#67 = APPROVAL_DATE_TIME ( #42, #109 ) ;
#68 = ADVANCED_FACE ( 'NONE', ( #241 ), #154, .T. ) ;
#69 = ORIENTED_EDGE ( 'NONE', *, *, #47, .T. ) ;
#70 = CIRCLE ( 'NONE', #127, 7.000000000000000000 ) ;
#71 = APPROVAL_PERSON_ORGANIZATION ( #81, #109, #21 ) ;
#72 = CLOSED_SHELL ( 'NONE', ( #208, #137, #68, #141, #254, #33, #236 ) ) ;
#73 = PERSON_AND_ORGANIZATION ( #162, #230 ) ;
#74 = CARTESIAN_POINT ( 'NONE',  ( -7.000000000000000000, 0.000000000000000000, 5.000000000000000000 ) ) ;
#75 = EDGE_CURVE ( 'NONE', #92, #55, #246, .T. ) ;
#76 = DIRECTION ( 'NONE',  ( -0.000000000000000000, -0.000000000000000000, -1.000000000000000000 ) ) ;
#77 = DIRECTION ( 'NONE',  ( 0.000000000000000000, 0.000000000000000000, 1.000000000000000000 ) ) ;
#78 = DIRECTION ( 'NONE',  ( 0.000000000000000000, 0.000000000000000000, 1.000000000000000000 ) ) ;
#79 = CIRCLE ( 'NONE', #89, 7.000000000000000000 ) ;
#80 = LINE ( 'NONE', #198, #63 ) ;
#81 = PERSON_AND_ORGANIZATION ( #162, #230 ) ;
#82 = CYLINDRICAL_SURFACE ( 'NONE', #235, 4.000000000000000000 ) ;
#83 = CALENDAR_DATE ( 2023, 12, 2 ) ;
#84 = CARTESIAN_POINT ( 'NONE',  ( 0.000000000000000000, 0.000000000000000000, 250.0000000000000000 ) ) ;
#85 = EDGE_CURVE ( 'NONE', #32, #169, #80, .T. ) ;
#86 = AXIS2_PLACEMENT_3D ( 'NONE', #40, #17, #99 ) ;
#87 = PERSON_AND_ORGANIZATION ( #162, #230 ) ;
#88 = ORIENTED_EDGE ( 'NONE', *, *, #85, .T. ) ;
#89 = AXIS2_PLACEMENT_3D ( 'NONE', #35, #255, #116 ) ;
#90 = EDGE_CURVE ( 'NONE', #12, #92, #115, .T. ) ;
#91 = ORIENTED_EDGE ( 'NONE', *, *, #176, .F. ) ;
#92 = VERTEX_POINT ( 'NONE', #243 ) ;
#93 = DIRECTION ( 'NONE',  ( 1.000000000000000000, 0.000000000000000000, 0.000000000000000000 ) ) ;
#94 = PRODUCT_DEFINITION ( 'NEZNÁMÝ', '', #122, #50 ) ;
#95 = VECTOR ( 'NONE', #239, 1000.000000000000000 ) ;
#96 = DIRECTION ( 'NONE',  ( 1.000000000000000000, 0.000000000000000000, 0.000000000000000000 ) ) ;
#97 = CARTESIAN_POINT ( 'NONE',  ( 4.000000000000000000, 4.898587196589412829E-16, 250.0000000000000000 ) ) ;
#98 = DIRECTION ( 'NONE',  ( -1.000000000000000000, 0.000000000000000000, 0.000000000000000000 ) ) ;
#99 = DIRECTION ( 'NONE',  ( 1.000000000000000000, 0.000000000000000000, 0.000000000000000000 ) ) ;
#100 = EDGE_CURVE ( 'NONE', #209, #12, #134, .T. ) ;
#101 = COORDINATED_UNIVERSAL_TIME_OFFSET ( 1, 0, .AHEAD. ) ;
#102 = DIRECTION ( 'NONE',  ( 0.000000000000000000, 0.000000000000000000, 1.000000000000000000 ) ) ;
#103 = CALENDAR_DATE ( 2023, 12, 2 ) ;
#104 = ORIENTED_EDGE ( 'NONE', *, *, #44, .F. ) ;
#105 = AXIS2_PLACEMENT_3D ( 'NONE', #132, #76, #117 ) ;
#106 = LOCAL_TIME ( 12, 48, 49.00000000000000000, #27 ) ;
#107 = ORIENTED_EDGE ( 'NONE', *, *, #187, .T. ) ;
#108 = EDGE_LOOP ( 'NONE', ( #148, #104, #248, #189 ) ) ;
#109 = APPROVAL ( #224, 'NEURÈENÝ' ) ;
#110 = ORIENTED_EDGE ( 'NONE', *, *, #100, .T. ) ;
#111 = PERSON_AND_ORGANIZATION_ROLE ( 'creator' ) ;
#112 = VERTEX_POINT ( 'NONE', #37 ) ;
#113 = CARTESIAN_POINT ( 'NONE',  ( 0.000000000000000000, 0.000000000000000000, 5.000000000000000000 ) ) ;
#114 = EDGE_CURVE ( 'NONE', #209, #55, #15, .T. ) ;
#115 = LINE ( 'NONE', #196, #95 ) ;
#116 = DIRECTION ( 'NONE',  ( 1.000000000000000000, 0.000000000000000000, 0.000000000000000000 ) ) ;
#117 = DIRECTION ( 'NONE',  ( -1.000000000000000000, 0.000000000000000000, 0.000000000000000000 ) ) ;
#118 = CARTESIAN_POINT ( 'NONE',  ( 4.000000000000000000, 4.898587196589412829E-16, 250.0000000000000000 ) ) ;
#119 =( LENGTH_UNIT ( ) NAMED_UNIT ( * ) SI_UNIT ( .MILLI., .METRE. ) );
#120 = PERSON_AND_ORGANIZATION ( #162, #230 ) ;
#121 = PERSON_AND_ORGANIZATION ( #162, #230 ) ;
#122 = PRODUCT_DEFINITION_FORMATION_WITH_SPECIFIED_SOURCE ( 'LIBOVOLNÝ', '', #56, .NOT_KNOWN. ) ;
#123 = APPROVAL_STATUS ( 'not_yet_approved' ) ;
#124 = APPROVAL_STATUS ( 'not_yet_approved' ) ;
#125 = ORIENTED_EDGE ( 'NONE', *, *, #75, .T. ) ;
#126 = AXIS2_PLACEMENT_3D ( 'NONE', #61, #138, #221 ) ;
#127 = AXIS2_PLACEMENT_3D ( 'NONE', #133, #78, #96 ) ;
#128 = PERSON_AND_ORGANIZATION_ROLE ( 'classification_officer' ) ;
#129 = EDGE_LOOP ( 'NONE', ( #48, #228 ) ) ;
#130 = EDGE_LOOP ( 'NONE', ( #234, #212 ) ) ;
#131 = DIRECTION ( 'NONE',  ( 0.000000000000000000, 0.000000000000000000, 1.000000000000000000 ) ) ;
#132 = CARTESIAN_POINT ( 'NONE',  ( 0.000000000000000000, 0.000000000000000000, 250.0000000000000000 ) ) ;
#133 = CARTESIAN_POINT ( 'NONE',  ( 0.000000000000000000, 0.000000000000000000, 5.000000000000000000 ) ) ;
#134 = CIRCLE ( 'NONE', #204, 4.000000000000000000 ) ;
#135 = AXIS2_PLACEMENT_3D ( 'NONE', #172, #197, #98 ) ;
#136 = PLANE ( 'NONE',  #22 ) ;
#137 = ADVANCED_FACE ( 'NONE', ( #220 ), #253, .T. ) ;
#138 = DIRECTION ( 'NONE',  ( 0.000000000000000000, 0.000000000000000000, 1.000000000000000000 ) ) ;
#139 = ADVANCED_BREP_SHAPE_REPRESENTATION ( '950a', ( #160, #206 ), #18 ) ;
#140 = FACE_OUTER_BOUND ( 'NONE', #149, .T. ) ;
#141 = ADVANCED_FACE ( 'NONE', ( #252, #155 ), #136, .T. ) ;
#142 = APPLICATION_PROTOCOL_DEFINITION ( 'international standard', 'config_control_design', 1994, #3 ) ;
#143 = DATE_AND_TIME ( #83, #247 ) ;
#144 = LOCAL_TIME ( 12, 48, 49.00000000000000000, #101 ) ;
#145 = DATE_AND_TIME ( #103, #11 ) ;
#146 = ORIENTED_EDGE ( 'NONE', *, *, #100, .F. ) ;
#147 = CC_DESIGN_DATE_AND_TIME_ASSIGNMENT ( #145, #191, ( #219 ) ) ;
#148 = ORIENTED_EDGE ( 'NONE', *, *, #85, .F. ) ;
#149 = EDGE_LOOP ( 'NONE', ( #9, #110 ) ) ;
#150 = EDGE_LOOP ( 'NONE', ( #146, #168, #232, #185 ) ) ;
#151 = AXIS2_PLACEMENT_3D ( 'NONE', #13, #77, #158 ) ;
#152 = CC_DESIGN_APPROVAL ( #109, ( #94 ) ) ;
#153 = CARTESIAN_POINT ( 'NONE',  ( 4.000000000000000000, 4.898587196589412829E-16, 5.000000000000000000 ) ) ;
#154 = CYLINDRICAL_SURFACE ( 'NONE', #6, 7.000000000000000000 ) ;
#155 = FACE_OUTER_BOUND ( 'NONE', #249, .T. ) ;
#156 = APPROVAL_PERSON_ORGANIZATION ( #46, #242, #52 ) ;
#157 = CARTESIAN_POINT ( 'NONE',  ( 7.000000000000000000, 8.572527594031473190E-16, 0.000000000000000000 ) ) ;
#158 = DIRECTION ( 'NONE',  ( 1.000000000000000000, 0.000000000000000000, 0.000000000000000000 ) ) ;
#159 = CC_DESIGN_PERSON_AND_ORGANIZATION_ASSIGNMENT ( #25, #128, ( #219 ) ) ;
#160 = MANIFOLD_SOLID_BREP ( 'Pøidat vysunutím3', #72 ) ;
#161 = DIRECTION ( 'NONE',  ( 1.000000000000000000, 0.000000000000000000, 0.000000000000000000 ) ) ;
#162 = PERSON ( 'NEURÈENÝ', 'NEURÈENÝ', 'NEURÈENÝ', ('NEURÈENÝ'), ('NEURÈENÝ'), ('NEURÈENÝ') ) ;
#163 = CIRCLE ( 'NONE', #86, 7.000000000000000000 ) ;
#164 = FACE_OUTER_BOUND ( 'NONE', #129, .T. ) ;
#165 = DIRECTION ( 'NONE',  ( -0.000000000000000000, -0.000000000000000000, -1.000000000000000000 ) ) ;
#166 = APPROVAL ( #123, 'NEURÈENÝ' ) ;
#167 = SHAPE_DEFINITION_REPRESENTATION ( #173, #139 ) ;
#168 = ORIENTED_EDGE ( 'NONE', *, *, #114, .T. ) ;
#169 = VERTEX_POINT ( 'NONE', #157 ) ;
#170 = FACE_OUTER_BOUND ( 'NONE', #150, .T. ) ;
#171 = DIRECTION ( 'NONE',  ( 1.000000000000000000, 0.000000000000000000, 0.000000000000000000 ) ) ;
#172 = CARTESIAN_POINT ( 'NONE',  ( 0.000000000000000000, 0.000000000000000000, 5.000000000000000000 ) ) ;
#173 = PRODUCT_DEFINITION_SHAPE ( 'NONE', 'NONE',  #94 ) ;
#174 = CARTESIAN_POINT ( 'NONE',  ( 0.000000000000000000, 0.000000000000000000, 5.000000000000000000 ) ) ;
#175 = CARTESIAN_POINT ( 'NONE',  ( 0.000000000000000000, 0.000000000000000000, 5.000000000000000000 ) ) ;
#176 = EDGE_CURVE ( 'NONE', #12, #209, #28, .T. ) ;
#177 = APPLICATION_PROTOCOL_DEFINITION ( 'international standard', 'config_control_design', 1994, #184 ) ;
#178 = VECTOR ( 'NONE', #238, 1000.000000000000000 ) ;
#179 = CALENDAR_DATE ( 2023, 12, 2 ) ;
#180 = CC_DESIGN_APPROVAL ( #166, ( #122 ) ) ;
#181 = CC_DESIGN_PERSON_AND_ORGANIZATION_ASSIGNMENT ( #120, #202, ( #56 ) ) ;
#182 = PERSON_AND_ORGANIZATION_ROLE ( 'creator' ) ;
#183 = CALENDAR_DATE ( 2023, 12, 2 ) ;
#184 = APPLICATION_CONTEXT ( 'configuration controlled 3d designs of mechanical parts and assemblies' ) ;
#185 = ORIENTED_EDGE ( 'NONE', *, *, #90, .F. ) ;
#186 = CIRCLE ( 'NONE', #223, 4.000000000000000000 ) ;
#187 = EDGE_CURVE ( 'NONE', #32, #53, #163, .T. ) ;
#188 = SECURITY_CLASSIFICATION_LEVEL ( 'unclassified' ) ;
#189 = ORIENTED_EDGE ( 'NONE', *, *, #54, .T. ) ;
#190 = ORIENTED_EDGE ( 'NONE', *, *, #44, .T. ) ;
#191 = DATE_TIME_ROLE ( 'classification_date' ) ;
#192 = EDGE_LOOP ( 'NONE', ( #233, #91, #31, #125 ) ) ;
#193 = DIRECTION ( 'NONE',  ( 0.000000000000000000, 0.000000000000000000, 1.000000000000000000 ) ) ;
#194 = CARTESIAN_POINT ( 'NONE',  ( 7.000000000000000000, 8.572527594031473190E-16, 5.000000000000000000 ) ) ;
#195 = CC_DESIGN_PERSON_AND_ORGANIZATION_ASSIGNMENT ( #121, #182, ( #94 ) ) ;
#196 = CARTESIAN_POINT ( 'NONE',  ( -4.000000000000000000, 0.000000000000000000, 250.0000000000000000 ) ) ;
#197 = DIRECTION ( 'NONE',  ( -0.000000000000000000, -0.000000000000000000, -1.000000000000000000 ) ) ;
#198 = CARTESIAN_POINT ( 'NONE',  ( 7.000000000000000000, 8.572527594031473190E-16, 5.000000000000000000 ) ) ;
#199 = LOCAL_TIME ( 12, 48, 49.00000000000000000, #24 ) ;
#200 =( NAMED_UNIT ( * ) SI_UNIT ( $, .STERADIAN. ) SOLID_ANGLE_UNIT ( ) );
#201 =( NAMED_UNIT ( * ) PLANE_ANGLE_UNIT ( ) SI_UNIT ( $, .RADIAN. ) );
#202 = PERSON_AND_ORGANIZATION_ROLE ( 'design_owner' ) ;
#203 = EDGE_CURVE ( 'NONE', #55, #92, #186, .T. ) ;
#204 = AXIS2_PLACEMENT_3D ( 'NONE', #251, #60, #58 ) ;
#205 = MECHANICAL_CONTEXT ( 'NONE', #184, 'mechanical' ) ;
#206 = AXIS2_PLACEMENT_3D ( 'NONE', #65, #102, #161 ) ;
#207 = APPROVAL_ROLE ( '' ) ;
#208 = ADVANCED_FACE ( 'NONE', ( #170 ), #82, .T. ) ;
#209 = VERTEX_POINT ( 'NONE', #118 ) ;
#210 = APPROVAL_DATE_TIME ( #8, #242 ) ;
#211 = CARTESIAN_POINT ( 'NONE',  ( -4.000000000000000000, 0.000000000000000000, 250.0000000000000000 ) ) ;
#212 = ORIENTED_EDGE ( 'NONE', *, *, #203, .F. ) ;
#213 = ORIENTED_EDGE ( 'NONE', *, *, #187, .F. ) ;
#214 = CC_DESIGN_APPROVAL ( #242, ( #219 ) ) ;
#215 = FACE_OUTER_BOUND ( 'NONE', #192, .T. ) ;
#216 = DIRECTION ( 'NONE',  ( -1.000000000000000000, 0.000000000000000000, 0.000000000000000000 ) ) ;
#217 = DIRECTION ( 'NONE',  ( -0.000000000000000000, -0.000000000000000000, -1.000000000000000000 ) ) ;
#218 = AXIS2_PLACEMENT_3D ( 'NONE', #237, #39, #171 ) ;
#219 = SECURITY_CLASSIFICATION ( '', '', #188 ) ;
#220 = FACE_OUTER_BOUND ( 'NONE', #51, .T. ) ;
#221 = DIRECTION ( 'NONE',  ( 1.000000000000000000, 0.000000000000000000, 0.000000000000000000 ) ) ;
#222 = CARTESIAN_POINT ( 'NONE',  ( 0.000000000000000000, 0.000000000000000000, 0.000000000000000000 ) ) ;
#223 = AXIS2_PLACEMENT_3D ( 'NONE', #175, #193, #93 ) ;
#224 = APPROVAL_STATUS ( 'not_yet_approved' ) ;
#225 = PLANE ( 'NONE',  #2 ) ;
#226 = PERSON_AND_ORGANIZATION ( #162, #230 ) ;
#227 = UNCERTAINTY_MEASURE_WITH_UNIT (LENGTH_MEASURE( 1.000000000000000082E-05 ), #119, 'distance_accuracy_value', 'NONE');
#228 = ORIENTED_EDGE ( 'NONE', *, *, #47, .F. ) ;
#229 = CALENDAR_DATE ( 2023, 12, 2 ) ;
#230 = ORGANIZATION ( 'NEURÈENÝ', 'NEURÈENÝ', '' ) ;
#231 = COORDINATED_UNIVERSAL_TIME_OFFSET ( 1, 0, .AHEAD. ) ;
#232 = ORIENTED_EDGE ( 'NONE', *, *, #203, .T. ) ;
#233 = ORIENTED_EDGE ( 'NONE', *, *, #114, .F. ) ;
#234 = ORIENTED_EDGE ( 'NONE', *, *, #75, .F. ) ;
#235 = AXIS2_PLACEMENT_3D ( 'NONE', #84, #165, #1 ) ;
#236 = ADVANCED_FACE ( 'NONE', ( #140 ), #225, .T. ) ;
#237 = CARTESIAN_POINT ( 'NONE',  ( 0.000000000000000000, 0.000000000000000000, 0.000000000000000000 ) ) ;
#238 = DIRECTION ( 'NONE',  ( -0.000000000000000000, -0.000000000000000000, -1.000000000000000000 ) ) ;
#239 = DIRECTION ( 'NONE',  ( -0.000000000000000000, -0.000000000000000000, -1.000000000000000000 ) ) ;
#240 = VECTOR ( 'NONE', #16, 1000.000000000000000 ) ;
#241 = FACE_OUTER_BOUND ( 'NONE', #108, .T. ) ;
#242 = APPROVAL ( #124, 'NEURÈENÝ' ) ;
#243 = CARTESIAN_POINT ( 'NONE',  ( -4.000000000000000000, 0.000000000000000000, 5.000000000000000000 ) ) ;
#244 = CARTESIAN_POINT ( 'NONE',  ( 0.000000000000000000, 0.000000000000000000, 250.0000000000000000 ) ) ;
#245 = APPROVAL_DATE_TIME ( #5, #166 ) ;
#246 = CIRCLE ( 'NONE', #151, 4.000000000000000000 ) ;
#247 = LOCAL_TIME ( 12, 48, 49.00000000000000000, #4 ) ;
#248 = ORIENTED_EDGE ( 'NONE', *, *, #30, .T. ) ;
#249 = EDGE_LOOP ( 'NONE', ( #190, #107 ) ) ;
#250 = DIRECTION ( 'NONE',  ( 1.000000000000000000, 0.000000000000000000, -0.000000000000000000 ) ) ;
#251 = CARTESIAN_POINT ( 'NONE',  ( 0.000000000000000000, 0.000000000000000000, 250.0000000000000000 ) ) ;
#252 = FACE_BOUND ( 'NONE', #130, .T. ) ;
#253 = CYLINDRICAL_SURFACE ( 'NONE', #135, 7.000000000000000000 ) ;
#254 = ADVANCED_FACE ( 'NONE', ( #164 ), #64, .F. ) ;
#255 = DIRECTION ( 'NONE',  ( 0.000000000000000000, 0.000000000000000000, 1.000000000000000000 ) ) ;
ENDSEC;
END-ISO-10303-21;
