ISO-10303-21;
HEADER;
FILE_DESCRIPTION (( 'STEP AP203' ),
    '1' );
FILE_NAME ('0d6a.STEP',
    '2023-02-12T12:58:23',
    ( '' ),
    ( '' ),
    'SwSTEP 2.0',
    'SolidWorks 2019',
    '' );
FILE_SCHEMA (( 'CONFIG_CONTROL_DESIGN' ));
ENDSEC;

DATA;
#1 = CC_DESIGN_PERSON_AND_ORGANIZATION_ASSIGNMENT ( #117, #96, ( #134 ) ) ;
#2 = AXIS2_PLACEMENT_3D ( 'NONE', #83, #50, #74 ) ;
#3 = DATE_TIME_ROLE ( 'creation_date' ) ;
#4 = ORIENTED_EDGE ( 'NONE', *, *, #67, .F. ) ;
#5 = EDGE_CURVE ( 'NONE', #15, #94, #222, .T. ) ;
#6 = APPROVAL_STATUS ( 'not_yet_approved' ) ;
#7 = APPROVAL_STATUS ( 'not_yet_approved' ) ;
#8 = AXIS2_PLACEMENT_3D ( 'NONE', #149, #109, #88 ) ;
#9 = AXIS2_PLACEMENT_3D ( 'NONE', #238, #17, #171 ) ;
#10 = CARTESIAN_POINT ( 'NONE',  ( -1.500000000000000222, 0.000000000000000000, 1.500000000000000000 ) ) ;
#11 = ORIENTED_EDGE ( 'NONE', *, *, #5, .F. ) ;
#12 = DIRECTION ( 'NONE',  ( 1.000000000000000000, 0.000000000000000000, -0.000000000000000000 ) ) ;
#13 = EDGE_CURVE ( 'NONE', #246, #126, #97, .T. ) ;
#14 = LINE ( 'NONE', #168, #16 ) ;
#15 = VERTEX_POINT ( 'NONE', #10 ) ;
#16 = VECTOR ( 'NONE', #130, 1000.000000000000000 ) ;
#17 = DIRECTION ( 'NONE',  ( 0.000000000000000000, 0.000000000000000000, 1.000000000000000000 ) ) ;
#18 = DIRECTION ( 'NONE',  ( -1.000000000000000000, 0.000000000000000000, 0.000000000000000000 ) ) ;
#19 = AXIS2_PLACEMENT_3D ( 'NONE', #217, #148, #189 ) ;
#20 = APPROVAL_PERSON_ORGANIZATION ( #46, #227, #186 ) ;
#21 = ORIENTED_EDGE ( 'NONE', *, *, #45, .F. ) ;
#22 = DIRECTION ( 'NONE',  ( -0.000000000000000000, -0.000000000000000000, -1.000000000000000000 ) ) ;
#23 = PERSON_AND_ORGANIZATION_ROLE ( 'creator' ) ;
#24 = DIRECTION ( 'NONE',  ( 1.000000000000000000, 0.000000000000000000, 0.000000000000000000 ) ) ;
#25 = CC_DESIGN_APPROVAL ( #188, ( #134 ) ) ;
#26 = PERSON_AND_ORGANIZATION_ROLE ( 'creator' ) ;
#27 = VERTEX_POINT ( 'NONE', #34 ) ;
#28 = SHAPE_DEFINITION_REPRESENTATION ( #77, #205 ) ;
#29 = ORIENTED_EDGE ( 'NONE', *, *, #42, .F. ) ;
#30 = EDGE_CURVE ( 'NONE', #76, #27, #133, .T. ) ;
#31 = CARTESIAN_POINT ( 'NONE',  ( 0.000000000000000000, 0.000000000000000000, 0.000000000000000000 ) ) ;
#32 = DIRECTION ( 'NONE',  ( 0.000000000000000000, 0.000000000000000000, 1.000000000000000000 ) ) ;
#33 = AXIS2_PLACEMENT_3D ( 'NONE', #115, #22, #57 ) ;
#34 = CARTESIAN_POINT ( 'NONE',  ( -0.6500000000000000222, 0.000000000000000000, 160.0000000000000000 ) ) ;
#35 = APPROVAL ( #6, 'NEURÈENÝ' ) ;
#36 = ORIENTED_EDGE ( 'NONE', *, *, #67, .T. ) ;
#37 = CARTESIAN_POINT ( 'NONE',  ( 0.000000000000000000, 0.000000000000000000, 160.0000000000000000 ) ) ;
#38 = PRODUCT_DEFINITION_FORMATION_WITH_SPECIFIED_SOURCE ( 'LIBOVOLNÝ', '', #112, .NOT_KNOWN. ) ;
#39 = CARTESIAN_POINT ( 'NONE',  ( -0.6500000000000000222, 0.000000000000000000, 1.500000000000000000 ) ) ;
#40 = DIRECTION ( 'NONE',  ( -0.000000000000000000, -0.000000000000000000, -1.000000000000000000 ) ) ;
#41 = FACE_OUTER_BOUND ( 'NONE', #68, .T. ) ;
#42 = EDGE_CURVE ( 'NONE', #145, #194, #64, .T. ) ;
#43 = PRODUCT_RELATED_PRODUCT_CATEGORY ( 'detail', '', ( #112 ) ) ;
#44 = APPLICATION_CONTEXT ( 'configuration controlled 3d designs of mechanical parts and assemblies' ) ;
#45 = EDGE_CURVE ( 'NONE', #194, #145, #127, .T. ) ;
#46 = PERSON_AND_ORGANIZATION ( #135, #229 ) ;
#47 = CALENDAR_DATE ( 2023, 12, 2 ) ;
#48 = DIRECTION ( 'NONE',  ( -0.000000000000000000, -0.000000000000000000, -1.000000000000000000 ) ) ;
#49 = DIRECTION ( 'NONE',  ( 1.000000000000000000, 0.000000000000000000, 0.000000000000000000 ) ) ;
#50 = DIRECTION ( 'NONE',  ( 0.000000000000000000, 0.000000000000000000, 1.000000000000000000 ) ) ;
#51 = ORIENTED_EDGE ( 'NONE', *, *, #5, .T. ) ;
#52 = AXIS2_PLACEMENT_3D ( 'NONE', #155, #218, #198 ) ;
#53 = FACE_OUTER_BOUND ( 'NONE', #140, .T. ) ;
#54 = LINE ( 'NONE', #93, #138 ) ;
#55 = CARTESIAN_POINT ( 'NONE',  ( 0.000000000000000000, 0.000000000000000000, 1.500000000000000000 ) ) ;
#56 =( LENGTH_UNIT ( ) NAMED_UNIT ( * ) SI_UNIT ( .MILLI., .METRE. ) );
#57 = DIRECTION ( 'NONE',  ( -1.000000000000000000, 0.000000000000000000, 0.000000000000000000 ) ) ;
#58 = ADVANCED_FACE ( 'NONE', ( #53 ), #125, .F. ) ;
#59 = FACE_OUTER_BOUND ( 'NONE', #174, .T. ) ;
#60 = AXIS2_PLACEMENT_3D ( 'NONE', #31, #230, #49 ) ;
#61 = EDGE_CURVE ( 'NONE', #94, #145, #14, .T. ) ;
#62 = EDGE_CURVE ( 'NONE', #94, #15, #165, .T. ) ;
#63 = APPLICATION_PROTOCOL_DEFINITION ( 'international standard', 'config_control_design', 1994, #73 ) ;
#64 = CIRCLE ( 'NONE', #214, 1.500000000000000222 ) ;
#65 = CC_DESIGN_PERSON_AND_ORGANIZATION_ASSIGNMENT ( #185, #26, ( #38 ) ) ;
#66 = DATE_AND_TIME ( #119, #233 ) ;
#67 = EDGE_CURVE ( 'NONE', #15, #194, #232, .T. ) ;
#68 = EDGE_LOOP ( 'NONE', ( #184, #11, #36, #250 ) ) ;
#69 = CC_DESIGN_DATE_AND_TIME_ASSIGNMENT ( #243, #143, ( #134 ) ) ;
#70 = ORIENTED_EDGE ( 'NONE', *, *, #42, .T. ) ;
#71 = EDGE_LOOP ( 'NONE', ( #164, #248 ) ) ;
#72 = CYLINDRICAL_SURFACE ( 'NONE', #199, 0.6500000000000000222 ) ;
#73 = APPLICATION_CONTEXT ( 'configuration controlled 3d designs of mechanical parts and assemblies' ) ;
#74 = DIRECTION ( 'NONE',  ( 1.000000000000000000, 0.000000000000000000, 0.000000000000000000 ) ) ;
#75 = FACE_OUTER_BOUND ( 'NONE', #71, .T. ) ;
#76 = VERTEX_POINT ( 'NONE', #216 ) ;
#77 = PRODUCT_DEFINITION_SHAPE ( 'NONE', 'NONE',  #121 ) ;
#78 = PERSON_AND_ORGANIZATION ( #135, #229 ) ;
#79 = PERSON_AND_ORGANIZATION ( #135, #229 ) ;
#80 = CALENDAR_DATE ( 2023, 12, 2 ) ;
#81 = MANIFOLD_SOLID_BREP ( 'Pøidat vysunutím3', #202 ) ;
#82 = COORDINATED_UNIVERSAL_TIME_OFFSET ( 1, 0, .AHEAD. ) ;
#83 = CARTESIAN_POINT ( 'NONE',  ( 0.000000000000000000, 0.000000000000000000, 1.500000000000000000 ) ) ;
#84 = VECTOR ( 'NONE', #111, 1000.000000000000000 ) ;
#85 = ORIENTED_EDGE ( 'NONE', *, *, #191, .T. ) ;
#86 = ORIENTED_EDGE ( 'NONE', *, *, #163, .F. ) ;
#87 = CARTESIAN_POINT ( 'NONE',  ( 1.500000000000000222, 1.836970198721030181E-16, 1.500000000000000000 ) ) ;
#88 = DIRECTION ( 'NONE',  ( 1.000000000000000000, 0.000000000000000000, 0.000000000000000000 ) ) ;
#89 = AXIS2_PLACEMENT_3D ( 'NONE', #172, #253, #203 ) ;
#90 = FACE_OUTER_BOUND ( 'NONE', #211, .T. ) ;
#91 = DIRECTION ( 'NONE',  ( -0.000000000000000000, -0.000000000000000000, -1.000000000000000000 ) ) ;
#92 =( NAMED_UNIT ( * ) SI_UNIT ( $, .STERADIAN. ) SOLID_ANGLE_UNIT ( ) );
#93 = CARTESIAN_POINT ( 'NONE',  ( 0.6500000000000000222, 7.960204194457795477E-17, 160.0000000000000000 ) ) ;
#94 = VERTEX_POINT ( 'NONE', #87 ) ;
#95 = FACE_OUTER_BOUND ( 'NONE', #212, .T. ) ;
#96 = PERSON_AND_ORGANIZATION_ROLE ( 'classification_officer' ) ;
#97 = CIRCLE ( 'NONE', #2, 0.6500000000000000222 ) ;
#98 = LOCAL_TIME ( 13, 58, 23.00000000000000000, #122 ) ;
#99 = DIRECTION ( 'NONE',  ( 0.000000000000000000, 0.000000000000000000, 1.000000000000000000 ) ) ;
#100 = COORDINATED_UNIVERSAL_TIME_OFFSET ( 1, 0, .AHEAD. ) ;
#101 = EDGE_LOOP ( 'NONE', ( #180, #201, #208, #167 ) ) ;
#102 = AXIS2_PLACEMENT_3D ( 'NONE', #55, #235, #237 ) ;
#103 = APPROVAL_ROLE ( '' ) ;
#104 = ORIENTED_EDGE ( 'NONE', *, *, #61, .T. ) ;
#105 = CARTESIAN_POINT ( 'NONE',  ( 0.000000000000000000, 0.000000000000000000, 0.000000000000000000 ) ) ;
#106 = CC_DESIGN_PERSON_AND_ORGANIZATION_ASSIGNMENT ( #183, #226, ( #112 ) ) ;
#107 = LOCAL_TIME ( 13, 58, 23.00000000000000000, #120 ) ;
#108 = DIRECTION ( 'NONE',  ( 1.000000000000000000, 0.000000000000000000, 0.000000000000000000 ) ) ;
#109 = DIRECTION ( 'NONE',  ( 0.000000000000000000, 0.000000000000000000, 1.000000000000000000 ) ) ;
#110 = CC_DESIGN_APPROVAL ( #227, ( #121 ) ) ;
#111 = DIRECTION ( 'NONE',  ( -0.000000000000000000, -0.000000000000000000, -1.000000000000000000 ) ) ;
#112 = PRODUCT ( '0d6a', '0d6a', '', ( #207 ) ) ;
#113 = APPROVAL_PERSON_ORGANIZATION ( #209, #188, #103 ) ;
#114 = ADVANCED_FACE ( 'NONE', ( #169 ), #72, .T. ) ;
#115 = CARTESIAN_POINT ( 'NONE',  ( 0.000000000000000000, 0.000000000000000000, 1.500000000000000000 ) ) ;
#116 = COORDINATED_UNIVERSAL_TIME_OFFSET ( 1, 0, .AHEAD. ) ;
#117 = PERSON_AND_ORGANIZATION ( #135, #229 ) ;
#118 = LOCAL_TIME ( 13, 58, 23.00000000000000000, #116 ) ;
#119 = CALENDAR_DATE ( 2023, 12, 2 ) ;
#120 = COORDINATED_UNIVERSAL_TIME_OFFSET ( 1, 0, .AHEAD. ) ;
#121 = PRODUCT_DEFINITION ( 'NEZNÁMÝ', '', #38, #197 ) ;
#122 = COORDINATED_UNIVERSAL_TIME_OFFSET ( 1, 0, .AHEAD. ) ;
#123 =( GEOMETRIC_REPRESENTATION_CONTEXT ( 3 ) GLOBAL_UNCERTAINTY_ASSIGNED_CONTEXT ( ( #175 ) ) GLOBAL_UNIT_ASSIGNED_CONTEXT ( ( #56, #220, #92 ) ) REPRESENTATION_CONTEXT ( 'NONE', 'WORKASPACE' ) );
#124 = DIRECTION ( 'NONE',  ( -1.000000000000000000, 0.000000000000000000, 0.000000000000000000 ) ) ;
#125 = PLANE ( 'NONE',  #195 ) ;
#126 = VERTEX_POINT ( 'NONE', #255 ) ;
#127 = CIRCLE ( 'NONE', #60, 1.500000000000000222 ) ;
#128 = AXIS2_PLACEMENT_3D ( 'NONE', #37, #91, #18 ) ;
#129 = DIRECTION ( 'NONE',  ( -0.000000000000000000, -0.000000000000000000, -1.000000000000000000 ) ) ;
#130 = DIRECTION ( 'NONE',  ( -0.000000000000000000, -0.000000000000000000, -1.000000000000000000 ) ) ;
#131 = ADVANCED_FACE ( 'NONE', ( #90 ), #177, .T. ) ;
#132 = CYLINDRICAL_SURFACE ( 'NONE', #128, 0.6500000000000000222 ) ;
#133 = CIRCLE ( 'NONE', #137, 0.6500000000000000222 ) ;
#134 = SECURITY_CLASSIFICATION ( '', '', #244 ) ;
#135 = PERSON ( 'NEURÈENÝ', 'NEURÈENÝ', 'NEURÈENÝ', ('NEURÈENÝ'), ('NEURÈENÝ'), ('NEURÈENÝ') ) ;
#136 = DIRECTION ( 'NONE',  ( 1.000000000000000000, 0.000000000000000000, 0.000000000000000000 ) ) ;
#137 = AXIS2_PLACEMENT_3D ( 'NONE', #251, #234, #187 ) ;
#138 = VECTOR ( 'NONE', #40, 1000.000000000000000 ) ;
#139 = CALENDAR_DATE ( 2023, 12, 2 ) ;
#140 = EDGE_LOOP ( 'NONE', ( #21, #29 ) ) ;
#141 = ADVANCED_FACE ( 'NONE', ( #59 ), #132, .T. ) ;
#142 = PERSON_AND_ORGANIZATION ( #135, #229 ) ;
#143 = DATE_TIME_ROLE ( 'classification_date' ) ;
#144 = ORIENTED_EDGE ( 'NONE', *, *, #13, .F. ) ;
#145 = VERTEX_POINT ( 'NONE', #254 ) ;
#146 = CC_DESIGN_DATE_AND_TIME_ASSIGNMENT ( #66, #3, ( #121 ) ) ;
#147 = ORIENTED_EDGE ( 'NONE', *, *, #192, .F. ) ;
#148 = DIRECTION ( 'NONE',  ( 0.000000000000000000, 0.000000000000000000, 1.000000000000000000 ) ) ;
#149 = CARTESIAN_POINT ( 'NONE',  ( 0.000000000000000000, 0.000000000000000000, 1.500000000000000000 ) ) ;
#150 = DIRECTION ( 'NONE',  ( 0.000000000000000000, 0.000000000000000000, 1.000000000000000000 ) ) ;
#151 = PLANE ( 'NONE',  #9 ) ;
#152 = ADVANCED_FACE ( 'NONE', ( #196, #95 ), #151, .T. ) ;
#153 = PLANE ( 'NONE',  #89 ) ;
#154 = CYLINDRICAL_SURFACE ( 'NONE', #33, 1.500000000000000222 ) ;
#155 = CARTESIAN_POINT ( 'NONE',  ( 0.000000000000000000, 0.000000000000000000, 1.500000000000000000 ) ) ;
#156 = DATE_AND_TIME ( #139, #247 ) ;
#157 = VECTOR ( 'NONE', #129, 1000.000000000000000 ) ;
#158 = CC_DESIGN_PERSON_AND_ORGANIZATION_ASSIGNMENT ( #142, #23, ( #121 ) ) ;
#159 = EDGE_CURVE ( 'NONE', #27, #76, #225, .T. ) ;
#160 = PERSON_AND_ORGANIZATION_ROLE ( 'design_supplier' ) ;
#161 = APPROVAL_ROLE ( '' ) ;
#162 = APPROVAL_DATE_TIME ( #241, #227 ) ;
#163 = EDGE_CURVE ( 'NONE', #126, #246, #181, .T. ) ;
#164 = ORIENTED_EDGE ( 'NONE', *, *, #159, .T. ) ;
#165 = CIRCLE ( 'NONE', #19, 1.500000000000000222 ) ;
#166 = CC_DESIGN_SECURITY_CLASSIFICATION ( #134, ( #38 ) ) ;
#167 = ORIENTED_EDGE ( 'NONE', *, *, #13, .T. ) ;
#168 = CARTESIAN_POINT ( 'NONE',  ( 1.500000000000000222, 1.836970198721030181E-16, 1.500000000000000000 ) ) ;
#169 = FACE_OUTER_BOUND ( 'NONE', #101, .T. ) ;
#170 = DIRECTION ( 'NONE',  ( 0.000000000000000000, 0.000000000000000000, 1.000000000000000000 ) ) ;
#171 = DIRECTION ( 'NONE',  ( 1.000000000000000000, 0.000000000000000000, -0.000000000000000000 ) ) ;
#172 = CARTESIAN_POINT ( 'NONE',  ( 0.000000000000000000, 0.000000000000000000, 160.0000000000000000 ) ) ;
#173 = APPROVAL_PERSON_ORGANIZATION ( #79, #35, #161 ) ;
#174 = EDGE_LOOP ( 'NONE', ( #231, #85, #224, #147 ) ) ;
#175 = UNCERTAINTY_MEASURE_WITH_UNIT (LENGTH_MEASURE( 1.000000000000000082E-05 ), #56, 'distance_accuracy_value', 'NONE');
#176 = APPLICATION_PROTOCOL_DEFINITION ( 'international standard', 'config_control_design', 1994, #44 ) ;
#177 = CYLINDRICAL_SURFACE ( 'NONE', #52, 1.500000000000000222 ) ;
#178 = CALENDAR_DATE ( 2023, 12, 2 ) ;
#179 = CC_DESIGN_PERSON_AND_ORGANIZATION_ASSIGNMENT ( #78, #160, ( #38 ) ) ;
#180 = ORIENTED_EDGE ( 'NONE', *, *, #191, .F. ) ;
#181 = CIRCLE ( 'NONE', #102, 0.6500000000000000222 ) ;
#182 = ADVANCED_FACE ( 'NONE', ( #75 ), #153, .T. ) ;
#183 = PERSON_AND_ORGANIZATION ( #135, #229 ) ;
#184 = ORIENTED_EDGE ( 'NONE', *, *, #61, .F. ) ;
#185 = PERSON_AND_ORGANIZATION ( #135, #229 ) ;
#186 = APPROVAL_ROLE ( '' ) ;
#187 = DIRECTION ( 'NONE',  ( 1.000000000000000000, 0.000000000000000000, 0.000000000000000000 ) ) ;
#188 = APPROVAL ( #7, 'NEURÈENÝ' ) ;
#189 = DIRECTION ( 'NONE',  ( 1.000000000000000000, 0.000000000000000000, 0.000000000000000000 ) ) ;
#190 = EDGE_LOOP ( 'NONE', ( #144, #86 ) ) ;
#191 = EDGE_CURVE ( 'NONE', #76, #126, #54, .T. ) ;
#192 = EDGE_CURVE ( 'NONE', #27, #246, #236, .T. ) ;
#193 = CARTESIAN_POINT ( 'NONE',  ( -1.500000000000000222, 0.000000000000000000, 1.500000000000000000 ) ) ;
#194 = VERTEX_POINT ( 'NONE', #219 ) ;
#195 = AXIS2_PLACEMENT_3D ( 'NONE', #105, #170, #12 ) ;
#196 = FACE_BOUND ( 'NONE', #190, .T. ) ;
#197 = DESIGN_CONTEXT ( 'detailed design', #73, 'design' ) ;
#198 = DIRECTION ( 'NONE',  ( -1.000000000000000000, 0.000000000000000000, 0.000000000000000000 ) ) ;
#199 = AXIS2_PLACEMENT_3D ( 'NONE', #228, #48, #124 ) ;
#200 = AXIS2_PLACEMENT_3D ( 'NONE', #239, #99, #24 ) ;
#201 = ORIENTED_EDGE ( 'NONE', *, *, #159, .F. ) ;
#202 = CLOSED_SHELL ( 'NONE', ( #141, #131, #245, #152, #58, #114, #182 ) ) ;
#203 = DIRECTION ( 'NONE',  ( 1.000000000000000000, 0.000000000000000000, -0.000000000000000000 ) ) ;
#204 = APPROVAL_STATUS ( 'not_yet_approved' ) ;
#205 = ADVANCED_BREP_SHAPE_REPRESENTATION ( '0d6a', ( #81, #200 ), #123 ) ;
#206 = APPROVAL_DATE_TIME ( #156, #188 ) ;
#207 = MECHANICAL_CONTEXT ( 'NONE', #44, 'mechanical' ) ;
#208 = ORIENTED_EDGE ( 'NONE', *, *, #192, .T. ) ;
#209 = PERSON_AND_ORGANIZATION ( #135, #229 ) ;
#210 = APPROVAL_DATE_TIME ( #223, #35 ) ;
#211 = EDGE_LOOP ( 'NONE', ( #249, #104, #70, #4 ) ) ;
#212 = EDGE_LOOP ( 'NONE', ( #51, #242 ) ) ;
#213 = CARTESIAN_POINT ( 'NONE',  ( 0.000000000000000000, 0.000000000000000000, 0.000000000000000000 ) ) ;
#214 = AXIS2_PLACEMENT_3D ( 'NONE', #213, #32, #108 ) ;
#215 = CC_DESIGN_APPROVAL ( #35, ( #38 ) ) ;
#216 = CARTESIAN_POINT ( 'NONE',  ( 0.6500000000000000222, 7.960204194457795477E-17, 160.0000000000000000 ) ) ;
#217 = CARTESIAN_POINT ( 'NONE',  ( 0.000000000000000000, 0.000000000000000000, 1.500000000000000000 ) ) ;
#218 = DIRECTION ( 'NONE',  ( -0.000000000000000000, -0.000000000000000000, -1.000000000000000000 ) ) ;
#219 = CARTESIAN_POINT ( 'NONE',  ( -1.500000000000000222, 0.000000000000000000, 0.000000000000000000 ) ) ;
#220 =( NAMED_UNIT ( * ) PLANE_ANGLE_UNIT ( ) SI_UNIT ( $, .RADIAN. ) );
#221 = CARTESIAN_POINT ( 'NONE',  ( -0.6500000000000000222, 0.000000000000000000, 160.0000000000000000 ) ) ;
#222 = CIRCLE ( 'NONE', #8, 1.500000000000000222 ) ;
#223 = DATE_AND_TIME ( #80, #98 ) ;
#224 = ORIENTED_EDGE ( 'NONE', *, *, #163, .T. ) ;
#225 = CIRCLE ( 'NONE', #240, 0.6500000000000000222 ) ;
#226 = PERSON_AND_ORGANIZATION_ROLE ( 'design_owner' ) ;
#227 = APPROVAL ( #204, 'NEURÈENÝ' ) ;
#228 = CARTESIAN_POINT ( 'NONE',  ( 0.000000000000000000, 0.000000000000000000, 160.0000000000000000 ) ) ;
#229 = ORGANIZATION ( 'NEURÈENÝ', 'NEURÈENÝ', '' ) ;
#230 = DIRECTION ( 'NONE',  ( 0.000000000000000000, 0.000000000000000000, 1.000000000000000000 ) ) ;
#231 = ORIENTED_EDGE ( 'NONE', *, *, #30, .F. ) ;
#232 = LINE ( 'NONE', #193, #157 ) ;
#233 = LOCAL_TIME ( 13, 58, 23.00000000000000000, #100 ) ;
#234 = DIRECTION ( 'NONE',  ( 0.000000000000000000, 0.000000000000000000, 1.000000000000000000 ) ) ;
#235 = DIRECTION ( 'NONE',  ( 0.000000000000000000, 0.000000000000000000, 1.000000000000000000 ) ) ;
#236 = LINE ( 'NONE', #221, #84 ) ;
#237 = DIRECTION ( 'NONE',  ( 1.000000000000000000, 0.000000000000000000, 0.000000000000000000 ) ) ;
#238 = CARTESIAN_POINT ( 'NONE',  ( 0.000000000000000000, 0.000000000000000000, 1.500000000000000000 ) ) ;
#239 = CARTESIAN_POINT ( 'NONE',  ( 0.000000000000000000, 0.000000000000000000, 0.000000000000000000 ) ) ;
#240 = AXIS2_PLACEMENT_3D ( 'NONE', #252, #150, #136 ) ;
#241 = DATE_AND_TIME ( #47, #118 ) ;
#242 = ORIENTED_EDGE ( 'NONE', *, *, #62, .T. ) ;
#243 = DATE_AND_TIME ( #178, #107 ) ;
#244 = SECURITY_CLASSIFICATION_LEVEL ( 'unclassified' ) ;
#245 = ADVANCED_FACE ( 'NONE', ( #41 ), #154, .T. ) ;
#246 = VERTEX_POINT ( 'NONE', #39 ) ;
#247 = LOCAL_TIME ( 13, 58, 23.00000000000000000, #82 ) ;
#248 = ORIENTED_EDGE ( 'NONE', *, *, #30, .T. ) ;
#249 = ORIENTED_EDGE ( 'NONE', *, *, #62, .F. ) ;
#250 = ORIENTED_EDGE ( 'NONE', *, *, #45, .T. ) ;
#251 = CARTESIAN_POINT ( 'NONE',  ( 0.000000000000000000, 0.000000000000000000, 160.0000000000000000 ) ) ;
#252 = CARTESIAN_POINT ( 'NONE',  ( 0.000000000000000000, 0.000000000000000000, 160.0000000000000000 ) ) ;
#253 = DIRECTION ( 'NONE',  ( 0.000000000000000000, 0.000000000000000000, 1.000000000000000000 ) ) ;
#254 = CARTESIAN_POINT ( 'NONE',  ( 1.500000000000000222, 1.836970198721030181E-16, 0.000000000000000000 ) ) ;
#255 = CARTESIAN_POINT ( 'NONE',  ( 0.6500000000000000222, 7.960204194457795477E-17, 1.500000000000000000 ) ) ;
ENDSEC;
END-ISO-10303-21;
