ISO-10303-21;
HEADER;
FILE_DESCRIPTION (( 'STEP AP203' ),
    '1' );
FILE_NAME ('3c53.STEP',
    '2023-02-12T12:06:09',
    ( '' ),
    ( '' ),
    'SwSTEP 2.0',
    'SolidWorks 2019',
    '' );
FILE_SCHEMA (( 'CONFIG_CONTROL_DESIGN' ));
ENDSEC;

DATA;
#1 = CARTESIAN_POINT ( 'NONE',  ( -3.500000000000000000, 0.000000000000000000, 100.0000000000000000 ) ) ;
#2 = PRODUCT_DEFINITION ( 'NEZNÁMÝ', '', #242, #232 ) ;
#3 = LOCAL_TIME ( 13, 6, 9.000000000000000000, #36 ) ;
#4 = APPROVAL_DATE_TIME ( #227, #111 ) ;
#5 = ORIENTED_EDGE ( 'NONE', *, *, #167, .T. ) ;
#6 = APPROVAL_DATE_TIME ( #243, #35 ) ;
#7 = PRODUCT_RELATED_PRODUCT_CATEGORY ( 'detail', '', ( #19 ) ) ;
#8 = APPROVAL_PERSON_ORGANIZATION ( #47, #161, #187 ) ;
#9 = EDGE_CURVE ( 'NONE', #142, #122, #245, .T. ) ;
#10 = CALENDAR_DATE ( 2023, 12, 2 ) ;
#11 = CARTESIAN_POINT ( 'NONE',  ( -3.500000000000000000, 0.000000000000000000, 100.0000000000000000 ) ) ;
#12 = DIRECTION ( 'NONE',  ( 1.000000000000000000, 0.000000000000000000, 0.000000000000000000 ) ) ;
#13 = DIRECTION ( 'NONE',  ( 0.000000000000000000, 0.000000000000000000, 1.000000000000000000 ) ) ;
#14 = DIRECTION ( 'NONE',  ( 1.000000000000000000, 0.000000000000000000, -0.000000000000000000 ) ) ;
#15 = DIRECTION ( 'NONE',  ( 0.000000000000000000, 0.000000000000000000, 1.000000000000000000 ) ) ;
#16 = CC_DESIGN_PERSON_AND_ORGANIZATION_ASSIGNMENT ( #66, #100, ( #145 ) ) ;
#17 = CARTESIAN_POINT ( 'NONE',  ( 0.000000000000000000, 0.000000000000000000, 100.0000000000000000 ) ) ;
#18 = DIRECTION ( 'NONE',  ( 0.000000000000000000, 0.000000000000000000, 1.000000000000000000 ) ) ;
#19 = PRODUCT ( '3c53', '3c53', '', ( #132 ) ) ;
#20 = ORGANIZATION ( 'NEURÈENÝ', 'NEURÈENÝ', '' ) ;
#21 = DIRECTION ( 'NONE',  ( 0.000000000000000000, 0.000000000000000000, 1.000000000000000000 ) ) ;
#22 = VECTOR ( 'NONE', #189, 1000.000000000000000 ) ;
#23 = DATE_AND_TIME ( #116, #150 ) ;
#24 = EDGE_LOOP ( 'NONE', ( #163, #144, #235, #79 ) ) ;
#25 = ADVANCED_FACE ( 'NONE', ( #131 ), #126, .T. ) ;
#26 = CALENDAR_DATE ( 2023, 12, 2 ) ;
#27 = ORIENTED_EDGE ( 'NONE', *, *, #253, .T. ) ;
#28 = FACE_BOUND ( 'NONE', #165, .T. ) ;
#29 = DIRECTION ( 'NONE',  ( -0.000000000000000000, -0.000000000000000000, -1.000000000000000000 ) ) ;
#30 = DIRECTION ( 'NONE',  ( 1.000000000000000000, 0.000000000000000000, 0.000000000000000000 ) ) ;
#31 = CC_DESIGN_APPROVAL ( #161, ( #145 ) ) ;
#32 = EDGE_CURVE ( 'NONE', #203, #122, #208, .T. ) ;
#33 = DIRECTION ( 'NONE',  ( -1.000000000000000000, 0.000000000000000000, 0.000000000000000000 ) ) ;
#34 = VERTEX_POINT ( 'NONE', #68 ) ;
#35 = APPROVAL ( #154, 'NEURÈENÝ' ) ;
#36 = COORDINATED_UNIVERSAL_TIME_OFFSET ( 1, 0, .AHEAD. ) ;
#37 = CARTESIAN_POINT ( 'NONE',  ( 0.000000000000000000, 0.000000000000000000, 5.000000000000000000 ) ) ;
#38 = EDGE_CURVE ( 'NONE', #64, #69, #106, .T. ) ;
#39 = FACE_OUTER_BOUND ( 'NONE', #65, .T. ) ;
#40 = APPROVAL_ROLE ( '' ) ;
#41 = ORIENTED_EDGE ( 'NONE', *, *, #234, .T. ) ;
#42 = EDGE_CURVE ( 'NONE', #64, #229, #55, .T. ) ;
#43 = AXIS2_PLACEMENT_3D ( 'NONE', #219, #21, #94 ) ;
#44 = CALENDAR_DATE ( 2023, 12, 2 ) ;
#45 = CC_DESIGN_PERSON_AND_ORGANIZATION_ASSIGNMENT ( #102, #60, ( #242 ) ) ;
#46 = ORIENTED_EDGE ( 'NONE', *, *, #234, .F. ) ;
#47 = PERSON_AND_ORGANIZATION ( #121, #20 ) ;
#48 = ORIENTED_EDGE ( 'NONE', *, *, #171, .F. ) ;
#49 = DIRECTION ( 'NONE',  ( 0.000000000000000000, 0.000000000000000000, 1.000000000000000000 ) ) ;
#50 = CLOSED_SHELL ( 'NONE', ( #25, #201, #139, #135, #209, #85, #225 ) ) ;
#51 = CC_DESIGN_PERSON_AND_ORGANIZATION_ASSIGNMENT ( #160, #202, ( #242 ) ) ;
#52 = VERTEX_POINT ( 'NONE', #67 ) ;
#53 = ORIENTED_EDGE ( 'NONE', *, *, #153, .T. ) ;
#54 = CC_DESIGN_DATE_AND_TIME_ASSIGNMENT ( #23, #222, ( #145 ) ) ;
#55 = LINE ( 'NONE', #105, #22 ) ;
#56 = FACE_OUTER_BOUND ( 'NONE', #230, .T. ) ;
#57 = PLANE ( 'NONE',  #174 ) ;
#58 = DIRECTION ( 'NONE',  ( -0.000000000000000000, -0.000000000000000000, -1.000000000000000000 ) ) ;
#59 = AXIS2_PLACEMENT_3D ( 'NONE', #255, #18, #156 ) ;
#60 = PERSON_AND_ORGANIZATION_ROLE ( 'creator' ) ;
#61 = EDGE_CURVE ( 'NONE', #34, #142, #169, .T. ) ;
#62 = EDGE_LOOP ( 'NONE', ( #125, #46, #5, #83 ) ) ;
#63 = AXIS2_PLACEMENT_3D ( 'NONE', #86, #15, #110 ) ;
#64 = VERTEX_POINT ( 'NONE', #175 ) ;
#65 = EDGE_LOOP ( 'NONE', ( #53, #99 ) ) ;
#66 = PERSON_AND_ORGANIZATION ( #121, #20 ) ;
#67 = CARTESIAN_POINT ( 'NONE',  ( -6.000000000000000888, 0.000000000000000000, 0.000000000000000000 ) ) ;
#68 = CARTESIAN_POINT ( 'NONE',  ( 3.500000000000000000, 4.286263797015736595E-16, 100.0000000000000000 ) ) ;
#69 = VERTEX_POINT ( 'NONE', #72 ) ;
#70 = CIRCLE ( 'NONE', #118, 6.000000000000000888 ) ;
#71 = LOCAL_TIME ( 13, 6, 9.000000000000000000, #140 ) ;
#72 = CARTESIAN_POINT ( 'NONE',  ( -6.000000000000000888, 0.000000000000000000, 5.000000000000000000 ) ) ;
#73 = DIRECTION ( 'NONE',  ( 1.000000000000000000, 0.000000000000000000, 0.000000000000000000 ) ) ;
#74 = PERSON_AND_ORGANIZATION ( #121, #20 ) ;
#75 = LOCAL_TIME ( 13, 6, 9.000000000000000000, #220 ) ;
#76 = DIRECTION ( 'NONE',  ( 1.000000000000000000, 0.000000000000000000, 0.000000000000000000 ) ) ;
#77 = DIRECTION ( 'NONE',  ( 0.000000000000000000, 0.000000000000000000, 1.000000000000000000 ) ) ;
#78 = APPROVAL_STATUS ( 'not_yet_approved' ) ;
#79 = ORIENTED_EDGE ( 'NONE', *, *, #104, .T. ) ;
#80 = PERSON_AND_ORGANIZATION_ROLE ( 'creator' ) ;
#81 = CC_DESIGN_DATE_AND_TIME_ASSIGNMENT ( #120, #204, ( #2 ) ) ;
#82 = PERSON_AND_ORGANIZATION ( #121, #20 ) ;
#83 = ORIENTED_EDGE ( 'NONE', *, *, #130, .T. ) ;
#84 = CIRCLE ( 'NONE', #237, 3.500000000000000000 ) ;
#85 = ADVANCED_FACE ( 'NONE', ( #147 ), #129, .T. ) ;
#86 = CARTESIAN_POINT ( 'NONE',  ( 0.000000000000000000, 0.000000000000000000, 5.000000000000000000 ) ) ;
#87 = FACE_OUTER_BOUND ( 'NONE', #244, .T. ) ;
#88 = CARTESIAN_POINT ( 'NONE',  ( 0.000000000000000000, 0.000000000000000000, 100.0000000000000000 ) ) ;
#89 = AXIS2_PLACEMENT_3D ( 'NONE', #151, #233, #188 ) ;
#90 = CC_DESIGN_APPROVAL ( #35, ( #2 ) ) ;
#91 = DIRECTION ( 'NONE',  ( -0.000000000000000000, -0.000000000000000000, -1.000000000000000000 ) ) ;
#92 = DIRECTION ( 'NONE',  ( 1.000000000000000000, 0.000000000000000000, -0.000000000000000000 ) ) ;
#93 = CYLINDRICAL_SURFACE ( 'NONE', #238, 6.000000000000000888 ) ;
#94 = DIRECTION ( 'NONE',  ( 1.000000000000000000, 0.000000000000000000, -0.000000000000000000 ) ) ;
#95 = AXIS2_PLACEMENT_3D ( 'NONE', #98, #112, #179 ) ;
#96 = CC_DESIGN_SECURITY_CLASSIFICATION ( #145, ( #242 ) ) ;
#97 = CARTESIAN_POINT ( 'NONE',  ( 0.000000000000000000, 0.000000000000000000, 100.0000000000000000 ) ) ;
#98 = CARTESIAN_POINT ( 'NONE',  ( 0.000000000000000000, 0.000000000000000000, 5.000000000000000000 ) ) ;
#99 = ORIENTED_EDGE ( 'NONE', *, *, #171, .T. ) ;
#100 = PERSON_AND_ORGANIZATION_ROLE ( 'classification_officer' ) ;
#101 = AXIS2_PLACEMENT_3D ( 'NONE', #148, #212, #33 ) ;
#102 = PERSON_AND_ORGANIZATION ( #121, #20 ) ;
#103 = FACE_OUTER_BOUND ( 'NONE', #62, .T. ) ;
#104 = EDGE_CURVE ( 'NONE', #122, #142, #84, .T. ) ;
#105 = CARTESIAN_POINT ( 'NONE',  ( 6.000000000000000888, 7.347880794884120722E-16, 5.000000000000000000 ) ) ;
#106 = CIRCLE ( 'NONE', #63, 6.000000000000000888 ) ;
#107 = CC_DESIGN_APPROVAL ( #111, ( #242 ) ) ;
#108 = CARTESIAN_POINT ( 'NONE',  ( 0.000000000000000000, 0.000000000000000000, 0.000000000000000000 ) ) ;
#109 = ORIENTED_EDGE ( 'NONE', *, *, #9, .F. ) ;
#110 = DIRECTION ( 'NONE',  ( 1.000000000000000000, 0.000000000000000000, 0.000000000000000000 ) ) ;
#111 = APPROVAL ( #166, 'NEURÈENÝ' ) ;
#112 = DIRECTION ( 'NONE',  ( 0.000000000000000000, 0.000000000000000000, 1.000000000000000000 ) ) ;
#113 =( NAMED_UNIT ( * ) PLANE_ANGLE_UNIT ( ) SI_UNIT ( $, .RADIAN. ) );
#114 = LOCAL_TIME ( 13, 6, 9.000000000000000000, #180 ) ;
#115 = DIRECTION ( 'NONE',  ( 0.000000000000000000, 0.000000000000000000, 1.000000000000000000 ) ) ;
#116 = CALENDAR_DATE ( 2023, 12, 2 ) ;
#117 = CC_DESIGN_PERSON_AND_ORGANIZATION_ASSIGNMENT ( #194, #177, ( #19 ) ) ;
#118 = AXIS2_PLACEMENT_3D ( 'NONE', #108, #13, #73 ) ;
#119 = PERSON_AND_ORGANIZATION ( #121, #20 ) ;
#120 = DATE_AND_TIME ( #44, #75 ) ;
#121 = PERSON ( 'NEURÈENÝ', 'NEURÈENÝ', 'NEURÈENÝ', ('NEURÈENÝ'), ('NEURÈENÝ'), ('NEURÈENÝ') ) ;
#122 = VERTEX_POINT ( 'NONE', #251 ) ;
#123 = ORIENTED_EDGE ( 'NONE', *, *, #42, .T. ) ;
#124 = UNCERTAINTY_MEASURE_WITH_UNIT (LENGTH_MEASURE( 1.000000000000000082E-05 ), #240, 'distance_accuracy_value', 'NONE');
#125 = ORIENTED_EDGE ( 'NONE', *, *, #42, .F. ) ;
#126 = CYLINDRICAL_SURFACE ( 'NONE', #221, 3.500000000000000000 ) ;
#127 = CARTESIAN_POINT ( 'NONE',  ( 0.000000000000000000, 0.000000000000000000, 5.000000000000000000 ) ) ;
#128 = CIRCLE ( 'NONE', #143, 3.500000000000000000 ) ;
#129 = CYLINDRICAL_SURFACE ( 'NONE', #101, 3.500000000000000000 ) ;
#130 = EDGE_CURVE ( 'NONE', #52, #229, #70, .T. ) ;
#131 = FACE_OUTER_BOUND ( 'NONE', #183, .T. ) ;
#132 = MECHANICAL_CONTEXT ( 'NONE', #184, 'mechanical' ) ;
#133 = VECTOR ( 'NONE', #91, 1000.000000000000000 ) ;
#134 = PRODUCT_DEFINITION_SHAPE ( 'NONE', 'NONE',  #2 ) ;
#135 = ADVANCED_FACE ( 'NONE', ( #28, #87 ), #228, .T. ) ;
#136 = CARTESIAN_POINT ( 'NONE',  ( 0.000000000000000000, 0.000000000000000000, 100.0000000000000000 ) ) ;
#137 = APPLICATION_PROTOCOL_DEFINITION ( 'international standard', 'config_control_design', 1994, #184 ) ;
#138 = DIRECTION ( 'NONE',  ( 1.000000000000000000, 0.000000000000000000, 0.000000000000000000 ) ) ;
#139 = ADVANCED_FACE ( 'NONE', ( #103 ), #172, .T. ) ;
#140 = COORDINATED_UNIVERSAL_TIME_OFFSET ( 1, 0, .AHEAD. ) ;
#141 = CALENDAR_DATE ( 2023, 12, 2 ) ;
#142 = VERTEX_POINT ( 'NONE', #198 ) ;
#143 = AXIS2_PLACEMENT_3D ( 'NONE', #17, #199, #138 ) ;
#144 = ORIENTED_EDGE ( 'NONE', *, *, #153, .F. ) ;
#145 = SECURITY_CLASSIFICATION ( '', '', #246 ) ;
#146 = COORDINATED_UNIVERSAL_TIME_OFFSET ( 1, 0, .AHEAD. ) ;
#147 = FACE_OUTER_BOUND ( 'NONE', #24, .T. ) ;
#148 = CARTESIAN_POINT ( 'NONE',  ( 0.000000000000000000, 0.000000000000000000, 100.0000000000000000 ) ) ;
#149 = ORIENTED_EDGE ( 'NONE', *, *, #253, .F. ) ;
#150 = LOCAL_TIME ( 13, 6, 9.000000000000000000, #146 ) ;
#151 = CARTESIAN_POINT ( 'NONE',  ( 0.000000000000000000, 0.000000000000000000, 5.000000000000000000 ) ) ;
#152 = ORIENTED_EDGE ( 'NONE', *, *, #104, .F. ) ;
#153 = EDGE_CURVE ( 'NONE', #203, #34, #196, .T. ) ;
#154 = APPROVAL_STATUS ( 'not_yet_approved' ) ;
#155 = DIRECTION ( 'NONE',  ( 0.000000000000000000, 0.000000000000000000, 1.000000000000000000 ) ) ;
#156 = DIRECTION ( 'NONE',  ( 1.000000000000000000, 0.000000000000000000, 0.000000000000000000 ) ) ;
#157 = CARTESIAN_POINT ( 'NONE',  ( 0.000000000000000000, 0.000000000000000000, 0.000000000000000000 ) ) ;
#158 = DIRECTION ( 'NONE',  ( 1.000000000000000000, 0.000000000000000000, 0.000000000000000000 ) ) ;
#159 = DATE_AND_TIME ( #141, #71 ) ;
#160 = PERSON_AND_ORGANIZATION ( #121, #20 ) ;
#161 = APPROVAL ( #78, 'NEURÈENÝ' ) ;
#162 = ORIENTED_EDGE ( 'NONE', *, *, #61, .T. ) ;
#163 = ORIENTED_EDGE ( 'NONE', *, *, #61, .F. ) ;
#164 = APPROVAL_PERSON_ORGANIZATION ( #74, #35, #215 ) ;
#165 = EDGE_LOOP ( 'NONE', ( #152, #109 ) ) ;
#166 = APPROVAL_STATUS ( 'not_yet_approved' ) ;
#167 = EDGE_CURVE ( 'NONE', #69, #52, #236, .T. ) ;
#168 = EDGE_LOOP ( 'NONE', ( #250, #149 ) ) ;
#169 = LINE ( 'NONE', #248, #185 ) ;
#170 = CARTESIAN_POINT ( 'NONE',  ( 0.000000000000000000, 0.000000000000000000, 5.000000000000000000 ) ) ;
#171 = EDGE_CURVE ( 'NONE', #34, #203, #128, .T. ) ;
#172 = CYLINDRICAL_SURFACE ( 'NONE', #89, 6.000000000000000888 ) ;
#173 = AXIS2_PLACEMENT_3D ( 'NONE', #170, #207, #14 ) ;
#174 = AXIS2_PLACEMENT_3D ( 'NONE', #136, #115, #92 ) ;
#175 = CARTESIAN_POINT ( 'NONE',  ( 6.000000000000000888, 7.347880794884120722E-16, 5.000000000000000000 ) ) ;
#176 = CC_DESIGN_PERSON_AND_ORGANIZATION_ASSIGNMENT ( #82, #80, ( #2 ) ) ;
#177 = PERSON_AND_ORGANIZATION_ROLE ( 'design_owner' ) ;
#178 = DIRECTION ( 'NONE',  ( -0.000000000000000000, -0.000000000000000000, -1.000000000000000000 ) ) ;
#179 = DIRECTION ( 'NONE',  ( 1.000000000000000000, 0.000000000000000000, 0.000000000000000000 ) ) ;
#180 = COORDINATED_UNIVERSAL_TIME_OFFSET ( 1, 0, .AHEAD. ) ;
#181 = MANIFOLD_SOLID_BREP ( 'Pøidat vysunutím3', #50 ) ;
#182 = APPROVAL_DATE_TIME ( #159, #161 ) ;
#183 = EDGE_LOOP ( 'NONE', ( #48, #162, #205, #192 ) ) ;
#184 = APPLICATION_CONTEXT ( 'configuration controlled 3d designs of mechanical parts and assemblies' ) ;
#185 = VECTOR ( 'NONE', #191, 1000.000000000000000 ) ;
#186 =( GEOMETRIC_REPRESENTATION_CONTEXT ( 3 ) GLOBAL_UNCERTAINTY_ASSIGNED_CONTEXT ( ( #124 ) ) GLOBAL_UNIT_ASSIGNED_CONTEXT ( ( #240, #113, #216 ) ) REPRESENTATION_CONTEXT ( 'NONE', 'WORKASPACE' ) );
#187 = APPROVAL_ROLE ( '' ) ;
#188 = DIRECTION ( 'NONE',  ( -1.000000000000000000, 0.000000000000000000, 0.000000000000000000 ) ) ;
#189 = DIRECTION ( 'NONE',  ( -0.000000000000000000, -0.000000000000000000, -1.000000000000000000 ) ) ;
#190 = CIRCLE ( 'NONE', #95, 6.000000000000000888 ) ;
#191 = DIRECTION ( 'NONE',  ( -0.000000000000000000, -0.000000000000000000, -1.000000000000000000 ) ) ;
#192 = ORIENTED_EDGE ( 'NONE', *, *, #32, .F. ) ;
#193 = ORIENTED_EDGE ( 'NONE', *, *, #38, .T. ) ;
#194 = PERSON_AND_ORGANIZATION ( #121, #20 ) ;
#195 = CARTESIAN_POINT ( 'NONE',  ( -6.000000000000000888, 0.000000000000000000, 5.000000000000000000 ) ) ;
#196 = CIRCLE ( 'NONE', #197, 3.500000000000000000 ) ;
#197 = AXIS2_PLACEMENT_3D ( 'NONE', #97, #155, #76 ) ;
#198 = CARTESIAN_POINT ( 'NONE',  ( 3.500000000000000000, 4.286263797015736595E-16, 5.000000000000000000 ) ) ;
#199 = DIRECTION ( 'NONE',  ( 0.000000000000000000, 0.000000000000000000, 1.000000000000000000 ) ) ;
#200 = SHAPE_DEFINITION_REPRESENTATION ( #134, #211 ) ;
#201 = ADVANCED_FACE ( 'NONE', ( #56 ), #93, .T. ) ;
#202 = PERSON_AND_ORGANIZATION_ROLE ( 'design_supplier' ) ;
#203 = VERTEX_POINT ( 'NONE', #1 ) ;
#204 = DATE_TIME_ROLE ( 'creation_date' ) ;
#205 = ORIENTED_EDGE ( 'NONE', *, *, #9, .T. ) ;
#206 = AXIS2_PLACEMENT_3D ( 'NONE', #157, #77, #158 ) ;
#207 = DIRECTION ( 'NONE',  ( 0.000000000000000000, 0.000000000000000000, 1.000000000000000000 ) ) ;
#208 = LINE ( 'NONE', #11, #133 ) ;
#209 = ADVANCED_FACE ( 'NONE', ( #254 ), #214, .F. ) ;
#210 = DIRECTION ( 'NONE',  ( 0.000000000000000000, 0.000000000000000000, 1.000000000000000000 ) ) ;
#211 = ADVANCED_BREP_SHAPE_REPRESENTATION ( '3c53', ( #181, #206 ), #186 ) ;
#212 = DIRECTION ( 'NONE',  ( -0.000000000000000000, -0.000000000000000000, -1.000000000000000000 ) ) ;
#213 = DIRECTION ( 'NONE',  ( -1.000000000000000000, 0.000000000000000000, 0.000000000000000000 ) ) ;
#214 = PLANE ( 'NONE',  #43 ) ;
#215 = APPROVAL_ROLE ( '' ) ;
#216 =( NAMED_UNIT ( * ) SI_UNIT ( $, .STERADIAN. ) SOLID_ANGLE_UNIT ( ) );
#217 = AXIS2_PLACEMENT_3D ( 'NONE', #247, #49, #12 ) ;
#218 = CIRCLE ( 'NONE', #59, 6.000000000000000888 ) ;
#219 = CARTESIAN_POINT ( 'NONE',  ( 0.000000000000000000, 0.000000000000000000, 0.000000000000000000 ) ) ;
#220 = COORDINATED_UNIVERSAL_TIME_OFFSET ( 1, 0, .AHEAD. ) ;
#221 = AXIS2_PLACEMENT_3D ( 'NONE', #88, #29, #213 ) ;
#222 = DATE_TIME_ROLE ( 'classification_date' ) ;
#223 = APPROVAL_PERSON_ORGANIZATION ( #119, #111, #40 ) ;
#224 = ORIENTED_EDGE ( 'NONE', *, *, #167, .F. ) ;
#225 = ADVANCED_FACE ( 'NONE', ( #39 ), #57, .T. ) ;
#226 = APPLICATION_CONTEXT ( 'configuration controlled 3d designs of mechanical parts and assemblies' ) ;
#227 = DATE_AND_TIME ( #26, #114 ) ;
#228 = PLANE ( 'NONE',  #173 ) ;
#229 = VERTEX_POINT ( 'NONE', #241 ) ;
#230 = EDGE_LOOP ( 'NONE', ( #249, #123, #27, #224 ) ) ;
#231 = VECTOR ( 'NONE', #58, 1000.000000000000000 ) ;
#232 = DESIGN_CONTEXT ( 'detailed design', #226, 'design' ) ;
#233 = DIRECTION ( 'NONE',  ( -0.000000000000000000, -0.000000000000000000, -1.000000000000000000 ) ) ;
#234 = EDGE_CURVE ( 'NONE', #69, #64, #190, .T. ) ;
#235 = ORIENTED_EDGE ( 'NONE', *, *, #32, .T. ) ;
#236 = LINE ( 'NONE', #195, #231 ) ;
#237 = AXIS2_PLACEMENT_3D ( 'NONE', #127, #210, #30 ) ;
#238 = AXIS2_PLACEMENT_3D ( 'NONE', #37, #178, #239 ) ;
#239 = DIRECTION ( 'NONE',  ( -1.000000000000000000, 0.000000000000000000, 0.000000000000000000 ) ) ;
#240 =( LENGTH_UNIT ( ) NAMED_UNIT ( * ) SI_UNIT ( .MILLI., .METRE. ) );
#241 = CARTESIAN_POINT ( 'NONE',  ( 6.000000000000000888, 7.347880794884120722E-16, 0.000000000000000000 ) ) ;
#242 = PRODUCT_DEFINITION_FORMATION_WITH_SPECIFIED_SOURCE ( 'LIBOVOLNÝ', '', #19, .NOT_KNOWN. ) ;
#243 = DATE_AND_TIME ( #10, #3 ) ;
#244 = EDGE_LOOP ( 'NONE', ( #41, #193 ) ) ;
#245 = CIRCLE ( 'NONE', #217, 3.500000000000000000 ) ;
#246 = SECURITY_CLASSIFICATION_LEVEL ( 'unclassified' ) ;
#247 = CARTESIAN_POINT ( 'NONE',  ( 0.000000000000000000, 0.000000000000000000, 5.000000000000000000 ) ) ;
#248 = CARTESIAN_POINT ( 'NONE',  ( 3.500000000000000000, 4.286263797015736595E-16, 100.0000000000000000 ) ) ;
#249 = ORIENTED_EDGE ( 'NONE', *, *, #38, .F. ) ;
#250 = ORIENTED_EDGE ( 'NONE', *, *, #130, .F. ) ;
#251 = CARTESIAN_POINT ( 'NONE',  ( -3.500000000000000000, 0.000000000000000000, 5.000000000000000000 ) ) ;
#252 = APPLICATION_PROTOCOL_DEFINITION ( 'international standard', 'config_control_design', 1994, #226 ) ;
#253 = EDGE_CURVE ( 'NONE', #229, #52, #218, .T. ) ;
#254 = FACE_OUTER_BOUND ( 'NONE', #168, .T. ) ;
#255 = CARTESIAN_POINT ( 'NONE',  ( 0.000000000000000000, 0.000000000000000000, 0.000000000000000000 ) ) ;
ENDSEC;
END-ISO-10303-21;
