ISO-10303-21;
HEADER;
FILE_DESCRIPTION (( 'STEP AP203' ),
    '1' );
FILE_NAME ('f27b.STEP',
    '2023-02-12T12:39:04',
    ( '' ),
    ( '' ),
    'SwSTEP 2.0',
    'SolidWorks 2019',
    '' );
FILE_SCHEMA (( 'CONFIG_CONTROL_DESIGN' ));
ENDSEC;

DATA;
#1 = VERTEX_POINT ( 'NONE', #89 ) ;
#2 = FACE_BOUND ( 'NONE', #79, .T. ) ;
#3 = DIRECTION ( 'NONE',  ( 1.000000000000000000, 0.000000000000000000, 0.000000000000000000 ) ) ;
#4 = DIRECTION ( 'NONE',  ( 0.000000000000000000, 0.000000000000000000, 1.000000000000000000 ) ) ;
#5 = ORIENTED_EDGE ( 'NONE', *, *, #220, .F. ) ;
#6 = CARTESIAN_POINT ( 'NONE',  ( 0.000000000000000000, 0.000000000000000000, 3.000000000000000000 ) ) ;
#7 = APPROVAL ( #10, 'NEURÈENÝ' ) ;
#8 = CARTESIAN_POINT ( 'NONE',  ( 4.000000000000000000, 4.898587196589412829E-16, 0.000000000000000000 ) ) ;
#9 = CC_DESIGN_APPROVAL ( #201, ( #224 ) ) ;
#10 = APPROVAL_STATUS ( 'not_yet_approved' ) ;
#11 = ADVANCED_FACE ( 'NONE', ( #232 ), #211, .T. ) ;
#12 = VERTEX_POINT ( 'NONE', #212 ) ;
#13 = CALENDAR_DATE ( 2023, 12, 2 ) ;
#14 = PRODUCT ( 'f27b', 'f27b', '', ( #178 ) ) ;
#15 = LOCAL_TIME ( 13, 39, 4.000000000000000000, #195 ) ;
#16 = DIRECTION ( 'NONE',  ( 0.000000000000000000, 0.000000000000000000, 1.000000000000000000 ) ) ;
#17 = EDGE_CURVE ( 'NONE', #1, #154, #23, .T. ) ;
#18 = DIRECTION ( 'NONE',  ( 1.000000000000000000, 0.000000000000000000, 0.000000000000000000 ) ) ;
#19 = ORIENTED_EDGE ( 'NONE', *, *, #73, .T. ) ;
#20 = CARTESIAN_POINT ( 'NONE',  ( 0.000000000000000000, 0.000000000000000000, 3.000000000000000000 ) ) ;
#21 = CARTESIAN_POINT ( 'NONE',  ( 0.000000000000000000, 0.000000000000000000, 0.000000000000000000 ) ) ;
#22 = VERTEX_POINT ( 'NONE', #132 ) ;
#23 = CIRCLE ( 'NONE', #71, 2.000000000000000000 ) ;
#24 = CALENDAR_DATE ( 2023, 12, 2 ) ;
#25 = CARTESIAN_POINT ( 'NONE',  ( 0.000000000000000000, 0.000000000000000000, 315.0000000000000000 ) ) ;
#26 = ADVANCED_FACE ( 'NONE', ( #54 ), #111, .F. ) ;
#27 = DIRECTION ( 'NONE',  ( 0.000000000000000000, 0.000000000000000000, 1.000000000000000000 ) ) ;
#28 = EDGE_CURVE ( 'NONE', #154, #1, #120, .T. ) ;
#29 = CARTESIAN_POINT ( 'NONE',  ( -4.000000000000000000, 0.000000000000000000, 0.000000000000000000 ) ) ;
#30 = AXIS2_PLACEMENT_3D ( 'NONE', #226, #123, #198 ) ;
#31 = COORDINATED_UNIVERSAL_TIME_OFFSET ( 1, 0, .AHEAD. ) ;
#32 = ORIENTED_EDGE ( 'NONE', *, *, #73, .F. ) ;
#33 = CALENDAR_DATE ( 2023, 12, 2 ) ;
#34 = APPLICATION_CONTEXT ( 'configuration controlled 3d designs of mechanical parts and assemblies' ) ;
#35 = AXIS2_PLACEMENT_3D ( 'NONE', #134, #4, #216 ) ;
#36 = DATE_TIME_ROLE ( 'classification_date' ) ;
#37 = ORIENTED_EDGE ( 'NONE', *, *, #91, .F. ) ;
#38 = COORDINATED_UNIVERSAL_TIME_OFFSET ( 1, 0, .AHEAD. ) ;
#39 = ORIENTED_EDGE ( 'NONE', *, *, #17, .T. ) ;
#40 = APPROVAL_DATE_TIME ( #88, #249 ) ;
#41 = VECTOR ( 'NONE', #137, 1000.000000000000000 ) ;
#42 = EDGE_CURVE ( 'NONE', #167, #125, #58, .T. ) ;
#43 = AXIS2_PLACEMENT_3D ( 'NONE', #143, #103, #157 ) ;
#44 = CARTESIAN_POINT ( 'NONE',  ( 2.000000000000000000, 2.449293598294706414E-16, 315.0000000000000000 ) ) ;
#45 = DIRECTION ( 'NONE',  ( 1.000000000000000000, 0.000000000000000000, 0.000000000000000000 ) ) ;
#46 = ORIENTED_EDGE ( 'NONE', *, *, #245, .F. ) ;
#47 = LINE ( 'NONE', #114, #53 ) ;
#48 = ORIENTED_EDGE ( 'NONE', *, *, #42, .T. ) ;
#49 = DIRECTION ( 'NONE',  ( 1.000000000000000000, 0.000000000000000000, 0.000000000000000000 ) ) ;
#50 =( NAMED_UNIT ( * ) PLANE_ANGLE_UNIT ( ) SI_UNIT ( $, .RADIAN. ) );
#51 = DATE_AND_TIME ( #24, #15 ) ;
#52 = EDGE_CURVE ( 'NONE', #240, #125, #207, .T. ) ;
#53 = VECTOR ( 'NONE', #235, 1000.000000000000000 ) ;
#54 = FACE_OUTER_BOUND ( 'NONE', #236, .T. ) ;
#55 = DIRECTION ( 'NONE',  ( 0.000000000000000000, 0.000000000000000000, 1.000000000000000000 ) ) ;
#56 = ORIENTED_EDGE ( 'NONE', *, *, #142, .F. ) ;
#57 = DIRECTION ( 'NONE',  ( -1.000000000000000000, 0.000000000000000000, 0.000000000000000000 ) ) ;
#58 = LINE ( 'NONE', #113, #41 ) ;
#59 = ORIENTED_EDGE ( 'NONE', *, *, #52, .F. ) ;
#60 = CC_DESIGN_PERSON_AND_ORGANIZATION_ASSIGNMENT ( #118, #62, ( #14 ) ) ;
#61 = FACE_OUTER_BOUND ( 'NONE', #208, .T. ) ;
#62 = PERSON_AND_ORGANIZATION_ROLE ( 'design_owner' ) ;
#63 = CC_DESIGN_PERSON_AND_ORGANIZATION_ASSIGNMENT ( #250, #206, ( #155 ) ) ;
#64 = LOCAL_TIME ( 13, 39, 4.000000000000000000, #254 ) ;
#65 = CARTESIAN_POINT ( 'NONE',  ( 2.000000000000000000, 2.449293598294706414E-16, 3.000000000000000000 ) ) ;
#66 = CC_DESIGN_APPROVAL ( #7, ( #165 ) ) ;
#67 = CC_DESIGN_DATE_AND_TIME_ASSIGNMENT ( #228, #36, ( #224 ) ) ;
#68 = PERSON_AND_ORGANIZATION ( #153, #183 ) ;
#69 = ORIENTED_EDGE ( 'NONE', *, *, #42, .F. ) ;
#70 = CALENDAR_DATE ( 2023, 12, 2 ) ;
#71 = AXIS2_PLACEMENT_3D ( 'NONE', #94, #16, #219 ) ;
#72 = ORIENTED_EDGE ( 'NONE', *, *, #122, .F. ) ;
#73 = EDGE_CURVE ( 'NONE', #12, #1, #47, .T. ) ;
#74 = COORDINATED_UNIVERSAL_TIME_OFFSET ( 1, 0, .AHEAD. ) ;
#75 = DIRECTION ( 'NONE',  ( 1.000000000000000000, 0.000000000000000000, 0.000000000000000000 ) ) ;
#76 = FACE_OUTER_BOUND ( 'NONE', #238, .T. ) ;
#77 = EDGE_LOOP ( 'NONE', ( #37, #72, #19, #39 ) ) ;
#78 = CARTESIAN_POINT ( 'NONE',  ( 0.000000000000000000, 0.000000000000000000, 3.000000000000000000 ) ) ;
#79 = EDGE_LOOP ( 'NONE', ( #196, #133 ) ) ;
#80 =( LENGTH_UNIT ( ) NAMED_UNIT ( * ) SI_UNIT ( .MILLI., .METRE. ) );
#81 = ORIENTED_EDGE ( 'NONE', *, *, #142, .T. ) ;
#82 = CIRCLE ( 'NONE', #98, 4.000000000000000000 ) ;
#83 = DIRECTION ( 'NONE',  ( 0.000000000000000000, 0.000000000000000000, 1.000000000000000000 ) ) ;
#84 = AXIS2_PLACEMENT_3D ( 'NONE', #78, #129, #100 ) ;
#85 = CARTESIAN_POINT ( 'NONE',  ( -4.000000000000000000, 0.000000000000000000, 3.000000000000000000 ) ) ;
#86 = APPROVAL_ROLE ( '' ) ;
#87 = CIRCLE ( 'NONE', #237, 2.000000000000000000 ) ;
#88 = DATE_AND_TIME ( #70, #131 ) ;
#89 = CARTESIAN_POINT ( 'NONE',  ( -2.000000000000000000, 0.000000000000000000, 3.000000000000000000 ) ) ;
#90 = ORIENTED_EDGE ( 'NONE', *, *, #96, .F. ) ;
#91 = EDGE_CURVE ( 'NONE', #22, #154, #214, .T. ) ;
#92 = AXIS2_PLACEMENT_3D ( 'NONE', #21, #192, #75 ) ;
#93 = CARTESIAN_POINT ( 'NONE',  ( 0.000000000000000000, 0.000000000000000000, 315.0000000000000000 ) ) ;
#94 = CARTESIAN_POINT ( 'NONE',  ( 0.000000000000000000, 0.000000000000000000, 3.000000000000000000 ) ) ;
#95 = ORIENTED_EDGE ( 'NONE', *, *, #28, .T. ) ;
#96 = EDGE_CURVE ( 'NONE', #22, #12, #197, .T. ) ;
#97 = DIRECTION ( 'NONE',  ( -1.000000000000000000, 0.000000000000000000, 0.000000000000000000 ) ) ;
#98 = AXIS2_PLACEMENT_3D ( 'NONE', #141, #27, #105 ) ;
#99 = CARTESIAN_POINT ( 'NONE',  ( 0.000000000000000000, 0.000000000000000000, 315.0000000000000000 ) ) ;
#100 = DIRECTION ( 'NONE',  ( 1.000000000000000000, 0.000000000000000000, -0.000000000000000000 ) ) ;
#101 = ORIENTED_EDGE ( 'NONE', *, *, #96, .T. ) ;
#102 = ADVANCED_FACE ( 'NONE', ( #255 ), #149, .T. ) ;
#103 = DIRECTION ( 'NONE',  ( 0.000000000000000000, 0.000000000000000000, 1.000000000000000000 ) ) ;
#104 = APPLICATION_CONTEXT ( 'configuration controlled 3d designs of mechanical parts and assemblies' ) ;
#105 = DIRECTION ( 'NONE',  ( 1.000000000000000000, 0.000000000000000000, 0.000000000000000000 ) ) ;
#106 = PERSON_AND_ORGANIZATION ( #153, #183 ) ;
#107 = VERTEX_POINT ( 'NONE', #233 ) ;
#108 = APPROVAL_STATUS ( 'not_yet_approved' ) ;
#109 = CC_DESIGN_DATE_AND_TIME_ASSIGNMENT ( #146, #144, ( #165 ) ) ;
#110 = APPROVAL_ROLE ( '' ) ;
#111 = PLANE ( 'NONE',  #35 ) ;
#112 = ADVANCED_FACE ( 'NONE', ( #2, #76 ), #194, .T. ) ;
#113 = CARTESIAN_POINT ( 'NONE',  ( 4.000000000000000000, 4.898587196589412829E-16, 3.000000000000000000 ) ) ;
#114 = CARTESIAN_POINT ( 'NONE',  ( -2.000000000000000000, 0.000000000000000000, 315.0000000000000000 ) ) ;
#115 = ADVANCED_FACE ( 'NONE', ( #221 ), #188, .T. ) ;
#116 = APPROVAL_PERSON_ORGANIZATION ( #145, #201, #166 ) ;
#117 = DIRECTION ( 'NONE',  ( -0.000000000000000000, -0.000000000000000000, -1.000000000000000000 ) ) ;
#118 = PERSON_AND_ORGANIZATION ( #153, #183 ) ;
#119 = ORIENTED_EDGE ( 'NONE', *, *, #148, .T. ) ;
#120 = CIRCLE ( 'NONE', #181, 2.000000000000000000 ) ;
#121 = LINE ( 'NONE', #85, #251 ) ;
#122 = EDGE_CURVE ( 'NONE', #12, #22, #87, .T. ) ;
#123 = DIRECTION ( 'NONE',  ( 0.000000000000000000, 0.000000000000000000, 1.000000000000000000 ) ) ;
#124 = PERSON_AND_ORGANIZATION_ROLE ( 'creator' ) ;
#125 = VERTEX_POINT ( 'NONE', #8 ) ;
#126 = CALENDAR_DATE ( 2023, 12, 2 ) ;
#127 = UNCERTAINTY_MEASURE_WITH_UNIT (LENGTH_MEASURE( 1.000000000000000082E-05 ), #80, 'distance_accuracy_value', 'NONE');
#128 = CC_DESIGN_PERSON_AND_ORGANIZATION_ASSIGNMENT ( #252, #180, ( #155 ) ) ;
#129 = DIRECTION ( 'NONE',  ( 0.000000000000000000, 0.000000000000000000, 1.000000000000000000 ) ) ;
#130 = ORIENTED_EDGE ( 'NONE', *, *, #245, .T. ) ;
#131 = LOCAL_TIME ( 13, 39, 4.000000000000000000, #38 ) ;
#132 = CARTESIAN_POINT ( 'NONE',  ( 2.000000000000000000, 2.449293598294706414E-16, 315.0000000000000000 ) ) ;
#133 = ORIENTED_EDGE ( 'NONE', *, *, #28, .F. ) ;
#134 = CARTESIAN_POINT ( 'NONE',  ( 0.000000000000000000, 0.000000000000000000, 0.000000000000000000 ) ) ;
#135 = ORIENTED_EDGE ( 'NONE', *, *, #122, .T. ) ;
#136 = CC_DESIGN_APPROVAL ( #249, ( #155 ) ) ;
#137 = DIRECTION ( 'NONE',  ( -0.000000000000000000, -0.000000000000000000, -1.000000000000000000 ) ) ;
#138 = DIRECTION ( 'NONE',  ( -1.000000000000000000, 0.000000000000000000, 0.000000000000000000 ) ) ;
#139 = PLANE ( 'NONE',  #193 ) ;
#140 =( GEOMETRIC_REPRESENTATION_CONTEXT ( 3 ) GLOBAL_UNCERTAINTY_ASSIGNED_CONTEXT ( ( #127 ) ) GLOBAL_UNIT_ASSIGNED_CONTEXT ( ( #80, #50, #225 ) ) REPRESENTATION_CONTEXT ( 'NONE', 'WORKASPACE' ) );
#141 = CARTESIAN_POINT ( 'NONE',  ( 0.000000000000000000, 0.000000000000000000, 3.000000000000000000 ) ) ;
#142 = EDGE_CURVE ( 'NONE', #107, #167, #82, .T. ) ;
#143 = CARTESIAN_POINT ( 'NONE',  ( 0.000000000000000000, 0.000000000000000000, 0.000000000000000000 ) ) ;
#144 = DATE_TIME_ROLE ( 'creation_date' ) ;
#145 = PERSON_AND_ORGANIZATION ( #153, #183 ) ;
#146 = DATE_AND_TIME ( #126, #170 ) ;
#147 = EDGE_LOOP ( 'NONE', ( #90, #187, #95, #32 ) ) ;
#148 = EDGE_CURVE ( 'NONE', #167, #107, #242, .T. ) ;
#149 = CYLINDRICAL_SURFACE ( 'NONE', #248, 2.000000000000000000 ) ;
#150 = DIRECTION ( 'NONE',  ( 0.000000000000000000, 0.000000000000000000, 1.000000000000000000 ) ) ;
#151 = AXIS2_PLACEMENT_3D ( 'NONE', #162, #202, #49 ) ;
#152 = DIRECTION ( 'NONE',  ( -1.000000000000000000, 0.000000000000000000, 0.000000000000000000 ) ) ;
#153 = PERSON ( 'NEURÈENÝ', 'NEURÈENÝ', 'NEURÈENÝ', ('NEURÈENÝ'), ('NEURÈENÝ'), ('NEURÈENÝ') ) ;
#154 = VERTEX_POINT ( 'NONE', #65 ) ;
#155 = PRODUCT_DEFINITION_FORMATION_WITH_SPECIFIED_SOURCE ( 'LIBOVOLNÝ', '', #14, .NOT_KNOWN. ) ;
#156 = AXIS2_PLACEMENT_3D ( 'NONE', #20, #190, #152 ) ;
#157 = DIRECTION ( 'NONE',  ( 1.000000000000000000, 0.000000000000000000, 0.000000000000000000 ) ) ;
#158 = APPLICATION_PROTOCOL_DEFINITION ( 'international standard', 'config_control_design', 1994, #104 ) ;
#159 = CLOSED_SHELL ( 'NONE', ( #11, #115, #161, #112, #26, #102, #169 ) ) ;
#160 = APPLICATION_PROTOCOL_DEFINITION ( 'international standard', 'config_control_design', 1994, #34 ) ;
#161 = ADVANCED_FACE ( 'NONE', ( #243 ), #200, .T. ) ;
#162 = CARTESIAN_POINT ( 'NONE',  ( 0.000000000000000000, 0.000000000000000000, 0.000000000000000000 ) ) ;
#163 = APPROVAL_DATE_TIME ( #51, #7 ) ;
#164 = CIRCLE ( 'NONE', #151, 4.000000000000000000 ) ;
#165 = PRODUCT_DEFINITION ( 'NEZNÁMÝ', '', #155, #189 ) ;
#166 = APPROVAL_ROLE ( '' ) ;
#167 = VERTEX_POINT ( 'NONE', #203 ) ;
#168 = APPROVAL_DATE_TIME ( #186, #201 ) ;
#169 = ADVANCED_FACE ( 'NONE', ( #61 ), #139, .T. ) ;
#170 = LOCAL_TIME ( 13, 39, 4.000000000000000000, #31 ) ;
#171 = CARTESIAN_POINT ( 'NONE',  ( 0.000000000000000000, 0.000000000000000000, 315.0000000000000000 ) ) ;
#172 = CARTESIAN_POINT ( 'NONE',  ( 0.000000000000000000, 0.000000000000000000, 3.000000000000000000 ) ) ;
#173 = DIRECTION ( 'NONE',  ( -0.000000000000000000, -0.000000000000000000, -1.000000000000000000 ) ) ;
#174 = DIRECTION ( 'NONE',  ( 0.000000000000000000, 0.000000000000000000, 1.000000000000000000 ) ) ;
#175 = CARTESIAN_POINT ( 'NONE',  ( 0.000000000000000000, 0.000000000000000000, 315.0000000000000000 ) ) ;
#176 = VECTOR ( 'NONE', #191, 1000.000000000000000 ) ;
#177 = CC_DESIGN_PERSON_AND_ORGANIZATION_ASSIGNMENT ( #184, #124, ( #165 ) ) ;
#178 = MECHANICAL_CONTEXT ( 'NONE', #104, 'mechanical' ) ;
#179 = PERSON_AND_ORGANIZATION ( #153, #183 ) ;
#180 = PERSON_AND_ORGANIZATION_ROLE ( 'design_supplier' ) ;
#181 = AXIS2_PLACEMENT_3D ( 'NONE', #172, #150, #45 ) ;
#182 = SHAPE_DEFINITION_REPRESENTATION ( #218, #204 ) ;
#183 = ORGANIZATION ( 'NEURÈENÝ', 'NEURÈENÝ', '' ) ;
#184 = PERSON_AND_ORGANIZATION ( #153, #183 ) ;
#185 = AXIS2_PLACEMENT_3D ( 'NONE', #171, #55, #18 ) ;
#186 = DATE_AND_TIME ( #33, #64 ) ;
#187 = ORIENTED_EDGE ( 'NONE', *, *, #91, .T. ) ;
#188 = CYLINDRICAL_SURFACE ( 'NONE', #156, 4.000000000000000000 ) ;
#189 = DESIGN_CONTEXT ( 'detailed design', #34, 'design' ) ;
#190 = DIRECTION ( 'NONE',  ( -0.000000000000000000, -0.000000000000000000, -1.000000000000000000 ) ) ;
#191 = DIRECTION ( 'NONE',  ( -0.000000000000000000, -0.000000000000000000, -1.000000000000000000 ) ) ;
#192 = DIRECTION ( 'NONE',  ( 0.000000000000000000, 0.000000000000000000, 1.000000000000000000 ) ) ;
#193 = AXIS2_PLACEMENT_3D ( 'NONE', #25, #83, #223 ) ;
#194 = PLANE ( 'NONE',  #84 ) ;
#195 = COORDINATED_UNIVERSAL_TIME_OFFSET ( 1, 0, .AHEAD. ) ;
#196 = ORIENTED_EDGE ( 'NONE', *, *, #17, .F. ) ;
#197 = CIRCLE ( 'NONE', #185, 2.000000000000000000 ) ;
#198 = DIRECTION ( 'NONE',  ( 1.000000000000000000, 0.000000000000000000, 0.000000000000000000 ) ) ;
#199 = CC_DESIGN_SECURITY_CLASSIFICATION ( #224, ( #155 ) ) ;
#200 = CYLINDRICAL_SURFACE ( 'NONE', #213, 4.000000000000000000 ) ;
#201 = APPROVAL ( #210, 'NEURÈENÝ' ) ;
#202 = DIRECTION ( 'NONE',  ( 0.000000000000000000, 0.000000000000000000, 1.000000000000000000 ) ) ;
#203 = CARTESIAN_POINT ( 'NONE',  ( 4.000000000000000000, 4.898587196589412829E-16, 3.000000000000000000 ) ) ;
#204 = ADVANCED_BREP_SHAPE_REPRESENTATION ( 'f27b', ( #209, #43 ), #140 ) ;
#205 = PERSON_AND_ORGANIZATION_ROLE ( 'classification_officer' ) ;
#206 = PERSON_AND_ORGANIZATION_ROLE ( 'creator' ) ;
#207 = CIRCLE ( 'NONE', #92, 4.000000000000000000 ) ;
#208 = EDGE_LOOP ( 'NONE', ( #135, #101 ) ) ;
#209 = MANIFOLD_SOLID_BREP ( 'Pøidat vysunutím3', #159 ) ;
#210 = APPROVAL_STATUS ( 'not_yet_approved' ) ;
#211 = CYLINDRICAL_SURFACE ( 'NONE', #239, 2.000000000000000000 ) ;
#212 = CARTESIAN_POINT ( 'NONE',  ( -2.000000000000000000, 0.000000000000000000, 315.0000000000000000 ) ) ;
#213 = AXIS2_PLACEMENT_3D ( 'NONE', #6, #244, #138 ) ;
#214 = LINE ( 'NONE', #44, #176 ) ;
#215 = CC_DESIGN_PERSON_AND_ORGANIZATION_ASSIGNMENT ( #68, #205, ( #224 ) ) ;
#216 = DIRECTION ( 'NONE',  ( 1.000000000000000000, 0.000000000000000000, -0.000000000000000000 ) ) ;
#217 = ORIENTED_EDGE ( 'NONE', *, *, #220, .T. ) ;
#218 = PRODUCT_DEFINITION_SHAPE ( 'NONE', 'NONE',  #165 ) ;
#219 = DIRECTION ( 'NONE',  ( 1.000000000000000000, 0.000000000000000000, 0.000000000000000000 ) ) ;
#220 = EDGE_CURVE ( 'NONE', #125, #240, #164, .T. ) ;
#221 = FACE_OUTER_BOUND ( 'NONE', #253, .T. ) ;
#222 = ORIENTED_EDGE ( 'NONE', *, *, #52, .T. ) ;
#223 = DIRECTION ( 'NONE',  ( 1.000000000000000000, 0.000000000000000000, -0.000000000000000000 ) ) ;
#224 = SECURITY_CLASSIFICATION ( '', '', #227 ) ;
#225 =( NAMED_UNIT ( * ) SI_UNIT ( $, .STERADIAN. ) SOLID_ANGLE_UNIT ( ) );
#226 = CARTESIAN_POINT ( 'NONE',  ( 0.000000000000000000, 0.000000000000000000, 3.000000000000000000 ) ) ;
#227 = SECURITY_CLASSIFICATION_LEVEL ( 'unclassified' ) ;
#228 = DATE_AND_TIME ( #13, #229 ) ;
#229 = LOCAL_TIME ( 13, 39, 4.000000000000000000, #74 ) ;
#230 = EDGE_LOOP ( 'NONE', ( #69, #56, #130, #222 ) ) ;
#231 = APPROVAL_PERSON_ORGANIZATION ( #179, #7, #86 ) ;
#232 = FACE_OUTER_BOUND ( 'NONE', #147, .T. ) ;
#233 = CARTESIAN_POINT ( 'NONE',  ( -4.000000000000000000, 0.000000000000000000, 3.000000000000000000 ) ) ;
#234 = ORIENTED_EDGE ( 'NONE', *, *, #148, .F. ) ;
#235 = DIRECTION ( 'NONE',  ( -0.000000000000000000, -0.000000000000000000, -1.000000000000000000 ) ) ;
#236 = EDGE_LOOP ( 'NONE', ( #59, #5 ) ) ;
#237 = AXIS2_PLACEMENT_3D ( 'NONE', #99, #174, #3 ) ;
#238 = EDGE_LOOP ( 'NONE', ( #81, #119 ) ) ;
#239 = AXIS2_PLACEMENT_3D ( 'NONE', #175, #173, #57 ) ;
#240 = VERTEX_POINT ( 'NONE', #29 ) ;
#241 = PRODUCT_RELATED_PRODUCT_CATEGORY ( 'detail', '', ( #14 ) ) ;
#242 = CIRCLE ( 'NONE', #30, 4.000000000000000000 ) ;
#243 = FACE_OUTER_BOUND ( 'NONE', #230, .T. ) ;
#244 = DIRECTION ( 'NONE',  ( -0.000000000000000000, -0.000000000000000000, -1.000000000000000000 ) ) ;
#245 = EDGE_CURVE ( 'NONE', #107, #240, #121, .T. ) ;
#246 = APPROVAL_PERSON_ORGANIZATION ( #106, #249, #110 ) ;
#247 = DIRECTION ( 'NONE',  ( -0.000000000000000000, -0.000000000000000000, -1.000000000000000000 ) ) ;
#248 = AXIS2_PLACEMENT_3D ( 'NONE', #93, #117, #97 ) ;
#249 = APPROVAL ( #108, 'NEURÈENÝ' ) ;
#250 = PERSON_AND_ORGANIZATION ( #153, #183 ) ;
#251 = VECTOR ( 'NONE', #247, 1000.000000000000000 ) ;
#252 = PERSON_AND_ORGANIZATION ( #153, #183 ) ;
#253 = EDGE_LOOP ( 'NONE', ( #234, #48, #217, #46 ) ) ;
#254 = COORDINATED_UNIVERSAL_TIME_OFFSET ( 1, 0, .AHEAD. ) ;
#255 = FACE_OUTER_BOUND ( 'NONE', #77, .T. ) ;
ENDSEC;
END-ISO-10303-21;
