ISO-10303-21;
HEADER;
FILE_DESCRIPTION (( 'STEP AP203' ),
    '1' );
FILE_NAME ('28dd.STEP',
    '2023-02-12T12:34:30',
    ( '' ),
    ( '' ),
    'SwSTEP 2.0',
    'SolidWorks 2019',
    '' );
FILE_SCHEMA (( 'CONFIG_CONTROL_DESIGN' ));
ENDSEC;

DATA;
#1 = ADVANCED_FACE ( 'NONE', ( #86, #148 ), #220, .T. ) ;
#2 = APPROVAL_PERSON_ORGANIZATION ( #6, #237, #50 ) ;
#3 = DIRECTION ( 'NONE',  ( -0.000000000000000000, -0.000000000000000000, -1.000000000000000000 ) ) ;
#4 = ADVANCED_FACE ( 'NONE', ( #204 ), #132, .T. ) ;
#5 = APPROVAL_ROLE ( '' ) ;
#6 = PERSON_AND_ORGANIZATION ( #39, #45 ) ;
#7 = SECURITY_CLASSIFICATION ( '', '', #107 ) ;
#8 = COORDINATED_UNIVERSAL_TIME_OFFSET ( 1, 0, .AHEAD. ) ;
#9 = EDGE_LOOP ( 'NONE', ( #23, #61, #11, #110 ) ) ;
#10 = EDGE_CURVE ( 'NONE', #186, #201, #120, .T. ) ;
#11 = ORIENTED_EDGE ( 'NONE', *, *, #116, .T. ) ;
#12 = DIRECTION ( 'NONE',  ( 0.000000000000000000, 0.000000000000000000, 1.000000000000000000 ) ) ;
#13 = DIRECTION ( 'NONE',  ( 1.000000000000000000, 0.000000000000000000, 0.000000000000000000 ) ) ;
#14 = CARTESIAN_POINT ( 'NONE',  ( 0.000000000000000000, 0.000000000000000000, 0.000000000000000000 ) ) ;
#15 = CARTESIAN_POINT ( 'NONE',  ( -4.000000000000000000, 0.000000000000000000, 3.000000000000000000 ) ) ;
#16 = DIRECTION ( 'NONE',  ( 1.000000000000000000, 0.000000000000000000, 0.000000000000000000 ) ) ;
#17 = CARTESIAN_POINT ( 'NONE',  ( 4.000000000000000000, 4.898587196589412829E-16, 3.000000000000000000 ) ) ;
#18 = APPLICATION_CONTEXT ( 'configuration controlled 3d designs of mechanical parts and assemblies' ) ;
#19 = COORDINATED_UNIVERSAL_TIME_OFFSET ( 1, 0, .AHEAD. ) ;
#20 = EDGE_CURVE ( 'NONE', #201, #186, #47, .T. ) ;
#21 = CIRCLE ( 'NONE', #167, 2.100000000000000089 ) ;
#22 =( NAMED_UNIT ( * ) PLANE_ANGLE_UNIT ( ) SI_UNIT ( $, .RADIAN. ) );
#23 = ORIENTED_EDGE ( 'NONE', *, *, #143, .F. ) ;
#24 = ORIENTED_EDGE ( 'NONE', *, *, #104, .T. ) ;
#25 = EDGE_CURVE ( 'NONE', #168, #187, #233, .T. ) ;
#26 = ORIENTED_EDGE ( 'NONE', *, *, #131, .F. ) ;
#27 = PRODUCT_DEFINITION ( 'NEZNÁMÝ', '', #162, #252 ) ;
#28 = DIRECTION ( 'NONE',  ( 1.000000000000000000, 0.000000000000000000, -0.000000000000000000 ) ) ;
#29 = DIRECTION ( 'NONE',  ( 1.000000000000000000, 0.000000000000000000, 0.000000000000000000 ) ) ;
#30 = DIRECTION ( 'NONE',  ( -0.000000000000000000, -0.000000000000000000, -1.000000000000000000 ) ) ;
#31 = DIRECTION ( 'NONE',  ( -0.000000000000000000, -0.000000000000000000, -1.000000000000000000 ) ) ;
#32 = CARTESIAN_POINT ( 'NONE',  ( 0.000000000000000000, 0.000000000000000000, 1000.000000000000000 ) ) ;
#33 = AXIS2_PLACEMENT_3D ( 'NONE', #114, #249, #72 ) ;
#34 = LINE ( 'NONE', #99, #91 ) ;
#35 = CC_DESIGN_APPROVAL ( #237, ( #162 ) ) ;
#36 = CALENDAR_DATE ( 2023, 12, 2 ) ;
#37 = PERSON_AND_ORGANIZATION_ROLE ( 'creator' ) ;
#38 = VERTEX_POINT ( 'NONE', #189 ) ;
#39 = PERSON ( 'NEURÈENÝ', 'NEURÈENÝ', 'NEURÈENÝ', ('NEURÈENÝ'), ('NEURÈENÝ'), ('NEURÈENÝ') ) ;
#40 = LOCAL_TIME ( 13, 34, 30.00000000000000000, #19 ) ;
#41 = VECTOR ( 'NONE', #30, 1000.000000000000000 ) ;
#42 = CYLINDRICAL_SURFACE ( 'NONE', #102, 4.000000000000000000 ) ;
#43 = DIRECTION ( 'NONE',  ( -1.000000000000000000, 0.000000000000000000, 0.000000000000000000 ) ) ;
#44 = CYLINDRICAL_SURFACE ( 'NONE', #70, 2.100000000000000089 ) ;
#45 = ORGANIZATION ( 'NEURÈENÝ', 'NEURÈENÝ', '' ) ;
#46 = CARTESIAN_POINT ( 'NONE',  ( 0.000000000000000000, 0.000000000000000000, 0.000000000000000000 ) ) ;
#47 = CIRCLE ( 'NONE', #147, 2.100000000000000089 ) ;
#48 = DIRECTION ( 'NONE',  ( -0.000000000000000000, -0.000000000000000000, -1.000000000000000000 ) ) ;
#49 = CC_DESIGN_PERSON_AND_ORGANIZATION_ASSIGNMENT ( #122, #180, ( #162 ) ) ;
#50 = APPROVAL_ROLE ( '' ) ;
#51 = AXIS2_PLACEMENT_3D ( 'NONE', #93, #190, #13 ) ;
#52 = COORDINATED_UNIVERSAL_TIME_OFFSET ( 1, 0, .AHEAD. ) ;
#53 = AXIS2_PLACEMENT_3D ( 'NONE', #46, #113, #16 ) ;
#54 = DATE_AND_TIME ( #234, #223 ) ;
#55 = CYLINDRICAL_SURFACE ( 'NONE', #198, 2.100000000000000089 ) ;
#56 = LINE ( 'NONE', #196, #123 ) ;
#57 = CLOSED_SHELL ( 'NONE', ( #211, #80, #68, #1, #90, #149, #4 ) ) ;
#58 = CALENDAR_DATE ( 2023, 12, 2 ) ;
#59 = APPLICATION_CONTEXT ( 'configuration controlled 3d designs of mechanical parts and assemblies' ) ;
#60 = PERSON_AND_ORGANIZATION ( #39, #45 ) ;
#61 = ORIENTED_EDGE ( 'NONE', *, *, #240, .T. ) ;
#62 = ORIENTED_EDGE ( 'NONE', *, *, #134, .T. ) ;
#63 = APPROVAL ( #144, 'NEURÈENÝ' ) ;
#64 = AXIS2_PLACEMENT_3D ( 'NONE', #112, #172, #153 ) ;
#65 = ORIENTED_EDGE ( 'NONE', *, *, #104, .F. ) ;
#66 = AXIS2_PLACEMENT_3D ( 'NONE', #222, #75, #229 ) ;
#67 = EDGE_LOOP ( 'NONE', ( #145, #88, #239, #24 ) ) ;
#68 = ADVANCED_FACE ( 'NONE', ( #173 ), #133, .T. ) ;
#69 = EDGE_LOOP ( 'NONE', ( #65, #181 ) ) ;
#70 = AXIS2_PLACEMENT_3D ( 'NONE', #253, #31, #115 ) ;
#71 = CARTESIAN_POINT ( 'NONE',  ( 0.000000000000000000, 0.000000000000000000, 1000.000000000000000 ) ) ;
#72 = DIRECTION ( 'NONE',  ( 1.000000000000000000, 0.000000000000000000, 0.000000000000000000 ) ) ;
#73 = DIRECTION ( 'NONE',  ( -0.000000000000000000, -0.000000000000000000, -1.000000000000000000 ) ) ;
#74 = DIRECTION ( 'NONE',  ( -0.000000000000000000, -0.000000000000000000, -1.000000000000000000 ) ) ;
#75 = DIRECTION ( 'NONE',  ( 0.000000000000000000, 0.000000000000000000, 1.000000000000000000 ) ) ;
#76 = FACE_OUTER_BOUND ( 'NONE', #244, .T. ) ;
#77 = CC_DESIGN_PERSON_AND_ORGANIZATION_ASSIGNMENT ( #214, #37, ( #162 ) ) ;
#78 = CC_DESIGN_APPROVAL ( #227, ( #27 ) ) ;
#79 = DATE_TIME_ROLE ( 'creation_date' ) ;
#80 = ADVANCED_FACE ( 'NONE', ( #225 ), #42, .T. ) ;
#81 = CARTESIAN_POINT ( 'NONE',  ( 0.000000000000000000, 0.000000000000000000, 1000.000000000000000 ) ) ;
#82 = CIRCLE ( 'NONE', #33, 4.000000000000000000 ) ;
#83 = AXIS2_PLACEMENT_3D ( 'NONE', #235, #119, #215 ) ;
#84 = ORIENTED_EDGE ( 'NONE', *, *, #25, .F. ) ;
#85 = DATE_TIME_ROLE ( 'classification_date' ) ;
#86 = FACE_BOUND ( 'NONE', #69, .T. ) ;
#87 = EDGE_CURVE ( 'NONE', #201, #38, #246, .T. ) ;
#88 = ORIENTED_EDGE ( 'NONE', *, *, #10, .F. ) ;
#89 = DIRECTION ( 'NONE',  ( 1.000000000000000000, 0.000000000000000000, -0.000000000000000000 ) ) ;
#90 = ADVANCED_FACE ( 'NONE', ( #226 ), #117, .F. ) ;
#91 = VECTOR ( 'NONE', #160, 1000.000000000000000 ) ;
#92 = DIRECTION ( 'NONE',  ( 0.000000000000000000, 0.000000000000000000, 1.000000000000000000 ) ) ;
#93 = CARTESIAN_POINT ( 'NONE',  ( 0.000000000000000000, 0.000000000000000000, 0.000000000000000000 ) ) ;
#94 = CC_DESIGN_PERSON_AND_ORGANIZATION_ASSIGNMENT ( #60, #150, ( #7 ) ) ;
#95 = CARTESIAN_POINT ( 'NONE',  ( 4.000000000000000000, 4.898587196589412829E-16, 0.000000000000000000 ) ) ;
#96 = UNCERTAINTY_MEASURE_WITH_UNIT (LENGTH_MEASURE( 1.000000000000000082E-05 ), #159, 'distance_accuracy_value', 'NONE');
#97 = CARTESIAN_POINT ( 'NONE',  ( 0.000000000000000000, 0.000000000000000000, 3.000000000000000000 ) ) ;
#98 = AXIS2_PLACEMENT_3D ( 'NONE', #71, #155, #89 ) ;
#99 = CARTESIAN_POINT ( 'NONE',  ( 4.000000000000000000, 4.898587196589412829E-16, 3.000000000000000000 ) ) ;
#100 = PRODUCT_DEFINITION_SHAPE ( 'NONE', 'NONE',  #27 ) ;
#101 = CARTESIAN_POINT ( 'NONE',  ( 2.100000000000000089, 2.571758278209441957E-16, 1000.000000000000000 ) ) ;
#102 = AXIS2_PLACEMENT_3D ( 'NONE', #169, #48, #43 ) ;
#103 = APPLICATION_PROTOCOL_DEFINITION ( 'international standard', 'config_control_design', 1994, #18 ) ;
#104 = EDGE_CURVE ( 'NONE', #151, #38, #21, .T. ) ;
#105 = ORIENTED_EDGE ( 'NONE', *, *, #25, .T. ) ;
#106 = APPROVAL_PERSON_ORGANIZATION ( #177, #227, #5 ) ;
#107 = SECURITY_CLASSIFICATION_LEVEL ( 'unclassified' ) ;
#108 = ORIENTED_EDGE ( 'NONE', *, *, #238, .F. ) ;
#109 = ORIENTED_EDGE ( 'NONE', *, *, #240, .F. ) ;
#110 = ORIENTED_EDGE ( 'NONE', *, *, #129, .F. ) ;
#111 = LOCAL_TIME ( 13, 34, 30.00000000000000000, #8 ) ;
#112 = CARTESIAN_POINT ( 'NONE',  ( 0.000000000000000000, 0.000000000000000000, 1000.000000000000000 ) ) ;
#113 = DIRECTION ( 'NONE',  ( 0.000000000000000000, 0.000000000000000000, 1.000000000000000000 ) ) ;
#114 = CARTESIAN_POINT ( 'NONE',  ( 0.000000000000000000, 0.000000000000000000, 3.000000000000000000 ) ) ;
#115 = DIRECTION ( 'NONE',  ( -1.000000000000000000, 0.000000000000000000, 0.000000000000000000 ) ) ;
#116 = EDGE_CURVE ( 'NONE', #184, #242, #213, .T. ) ;
#117 = PLANE ( 'NONE',  #243 ) ;
#118 = CC_DESIGN_PERSON_AND_ORGANIZATION_ASSIGNMENT ( #179, #212, ( #27 ) ) ;
#119 = DIRECTION ( 'NONE',  ( 0.000000000000000000, 0.000000000000000000, 1.000000000000000000 ) ) ;
#120 = CIRCLE ( 'NONE', #64, 2.100000000000000089 ) ;
#121 = COORDINATED_UNIVERSAL_TIME_OFFSET ( 1, 0, .AHEAD. ) ;
#122 = PERSON_AND_ORGANIZATION ( #39, #45 ) ;
#123 = VECTOR ( 'NONE', #142, 1000.000000000000000 ) ;
#124 = MECHANICAL_CONTEXT ( 'NONE', #59, 'mechanical' ) ;
#125 = COORDINATED_UNIVERSAL_TIME_OFFSET ( 1, 0, .AHEAD. ) ;
#126 = EDGE_LOOP ( 'NONE', ( #164, #245 ) ) ;
#127 = ORIENTED_EDGE ( 'NONE', *, *, #131, .T. ) ;
#128 = EDGE_LOOP ( 'NONE', ( #26, #166 ) ) ;
#129 = EDGE_CURVE ( 'NONE', #168, #242, #130, .T. ) ;
#130 = LINE ( 'NONE', #175, #208 ) ;
#131 = EDGE_CURVE ( 'NONE', #242, #184, #197, .T. ) ;
#132 = PLANE ( 'NONE',  #98 ) ;
#133 = CYLINDRICAL_SURFACE ( 'NONE', #137, 4.000000000000000000 ) ;
#134 = EDGE_CURVE ( 'NONE', #38, #151, #195, .T. ) ;
#135 = LOCAL_TIME ( 13, 34, 30.00000000000000000, #125 ) ;
#136 = CARTESIAN_POINT ( 'NONE',  ( 0.000000000000000000, 0.000000000000000000, 3.000000000000000000 ) ) ;
#137 = AXIS2_PLACEMENT_3D ( 'NONE', #97, #74, #228 ) ;
#138 = CARTESIAN_POINT ( 'NONE',  ( 2.100000000000000089, 2.571758278209441957E-16, 1000.000000000000000 ) ) ;
#139 = DIRECTION ( 'NONE',  ( -1.000000000000000000, 0.000000000000000000, 0.000000000000000000 ) ) ;
#140 = APPROVAL_DATE_TIME ( #232, #227 ) ;
#141 = APPROVAL_DATE_TIME ( #54, #237 ) ;
#142 = DIRECTION ( 'NONE',  ( -0.000000000000000000, -0.000000000000000000, -1.000000000000000000 ) ) ;
#143 = EDGE_CURVE ( 'NONE', #187, #168, #82, .T. ) ;
#144 = APPROVAL_STATUS ( 'not_yet_approved' ) ;
#145 = ORIENTED_EDGE ( 'NONE', *, *, #87, .F. ) ;
#146 = SHAPE_DEFINITION_REPRESENTATION ( #100, #207 ) ;
#147 = AXIS2_PLACEMENT_3D ( 'NONE', #32, #205, #210 ) ;
#148 = FACE_OUTER_BOUND ( 'NONE', #218, .T. ) ;
#149 = ADVANCED_FACE ( 'NONE', ( #154 ), #44, .T. ) ;
#150 = PERSON_AND_ORGANIZATION_ROLE ( 'classification_officer' ) ;
#151 = VERTEX_POINT ( 'NONE', #192 ) ;
#152 = LOCAL_TIME ( 13, 34, 30.00000000000000000, #52 ) ;
#153 = DIRECTION ( 'NONE',  ( 1.000000000000000000, 0.000000000000000000, 0.000000000000000000 ) ) ;
#154 = FACE_OUTER_BOUND ( 'NONE', #67, .T. ) ;
#155 = DIRECTION ( 'NONE',  ( 0.000000000000000000, 0.000000000000000000, 1.000000000000000000 ) ) ;
#156 = AXIS2_PLACEMENT_3D ( 'NONE', #136, #92, #171 ) ;
#157 = CARTESIAN_POINT ( 'NONE',  ( -2.100000000000000089, 0.000000000000000000, 1000.000000000000000 ) ) ;
#158 = PERSON_AND_ORGANIZATION ( #39, #45 ) ;
#159 =( LENGTH_UNIT ( ) NAMED_UNIT ( * ) SI_UNIT ( .MILLI., .METRE. ) );
#160 = DIRECTION ( 'NONE',  ( -0.000000000000000000, -0.000000000000000000, -1.000000000000000000 ) ) ;
#161 = CARTESIAN_POINT ( 'NONE',  ( -4.000000000000000000, 0.000000000000000000, 0.000000000000000000 ) ) ;
#162 = PRODUCT_DEFINITION_FORMATION_WITH_SPECIFIED_SOURCE ( 'LIBOVOLNÝ', '', #231, .NOT_KNOWN. ) ;
#163 = DATE_AND_TIME ( #58, #135 ) ;
#164 = ORIENTED_EDGE ( 'NONE', *, *, #10, .T. ) ;
#165 = APPROVAL_DATE_TIME ( #185, #63 ) ;
#166 = ORIENTED_EDGE ( 'NONE', *, *, #116, .F. ) ;
#167 = AXIS2_PLACEMENT_3D ( 'NONE', #209, #251, #29 ) ;
#168 = VERTEX_POINT ( 'NONE', #15 ) ;
#169 = CARTESIAN_POINT ( 'NONE',  ( 0.000000000000000000, 0.000000000000000000, 3.000000000000000000 ) ) ;
#170 = CC_DESIGN_PERSON_AND_ORGANIZATION_ASSIGNMENT ( #158, #199, ( #231 ) ) ;
#171 = DIRECTION ( 'NONE',  ( 1.000000000000000000, 0.000000000000000000, 0.000000000000000000 ) ) ;
#172 = DIRECTION ( 'NONE',  ( 0.000000000000000000, 0.000000000000000000, 1.000000000000000000 ) ) ;
#173 = FACE_OUTER_BOUND ( 'NONE', #219, .T. ) ;
#174 = CC_DESIGN_APPROVAL ( #63, ( #7 ) ) ;
#175 = CARTESIAN_POINT ( 'NONE',  ( -4.000000000000000000, 0.000000000000000000, 3.000000000000000000 ) ) ;
#176 = APPLICATION_PROTOCOL_DEFINITION ( 'international standard', 'config_control_design', 1994, #59 ) ;
#177 = PERSON_AND_ORGANIZATION ( #39, #45 ) ;
#178 = APPROVAL_STATUS ( 'not_yet_approved' ) ;
#179 = PERSON_AND_ORGANIZATION ( #39, #45 ) ;
#180 = PERSON_AND_ORGANIZATION_ROLE ( 'design_supplier' ) ;
#181 = ORIENTED_EDGE ( 'NONE', *, *, #134, .F. ) ;
#182 = PERSON_AND_ORGANIZATION ( #39, #45 ) ;
#183 = ORIENTED_EDGE ( 'NONE', *, *, #129, .T. ) ;
#184 = VERTEX_POINT ( 'NONE', #95 ) ;
#185 = DATE_AND_TIME ( #217, #111 ) ;
#186 = VERTEX_POINT ( 'NONE', #157 ) ;
#187 = VERTEX_POINT ( 'NONE', #17 ) ;
#188 = MANIFOLD_SOLID_BREP ( 'Pøidat vysunutím3', #57 ) ;
#189 = CARTESIAN_POINT ( 'NONE',  ( 2.100000000000000089, 2.571758278209441957E-16, 3.000000000000000000 ) ) ;
#190 = DIRECTION ( 'NONE',  ( 0.000000000000000000, 0.000000000000000000, 1.000000000000000000 ) ) ;
#191 = APPROVAL_PERSON_ORGANIZATION ( #182, #63, #202 ) ;
#192 = CARTESIAN_POINT ( 'NONE',  ( -2.100000000000000089, 0.000000000000000000, 3.000000000000000000 ) ) ;
#193 = PRODUCT_RELATED_PRODUCT_CATEGORY ( 'detail', '', ( #231 ) ) ;
#194 = DIRECTION ( 'NONE',  ( 1.000000000000000000, 0.000000000000000000, -0.000000000000000000 ) ) ;
#195 = CIRCLE ( 'NONE', #156, 2.100000000000000089 ) ;
#196 = CARTESIAN_POINT ( 'NONE',  ( -2.100000000000000089, 0.000000000000000000, 1000.000000000000000 ) ) ;
#197 = CIRCLE ( 'NONE', #51, 4.000000000000000000 ) ;
#198 = AXIS2_PLACEMENT_3D ( 'NONE', #81, #3, #139 ) ;
#199 = PERSON_AND_ORGANIZATION_ROLE ( 'design_owner' ) ;
#200 = ORIENTED_EDGE ( 'NONE', *, *, #20, .F. ) ;
#201 = VERTEX_POINT ( 'NONE', #101 ) ;
#202 = APPROVAL_ROLE ( '' ) ;
#203 = AXIS2_PLACEMENT_3D ( 'NONE', #206, #12, #194 ) ;
#204 = FACE_OUTER_BOUND ( 'NONE', #126, .T. ) ;
#205 = DIRECTION ( 'NONE',  ( 0.000000000000000000, 0.000000000000000000, 1.000000000000000000 ) ) ;
#206 = CARTESIAN_POINT ( 'NONE',  ( 0.000000000000000000, 0.000000000000000000, 3.000000000000000000 ) ) ;
#207 = ADVANCED_BREP_SHAPE_REPRESENTATION ( '28dd', ( #188, #83 ), #248 ) ;
#208 = VECTOR ( 'NONE', #73, 1000.000000000000000 ) ;
#209 = CARTESIAN_POINT ( 'NONE',  ( 0.000000000000000000, 0.000000000000000000, 3.000000000000000000 ) ) ;
#210 = DIRECTION ( 'NONE',  ( 1.000000000000000000, 0.000000000000000000, 0.000000000000000000 ) ) ;
#211 = ADVANCED_FACE ( 'NONE', ( #76 ), #55, .T. ) ;
#212 = PERSON_AND_ORGANIZATION_ROLE ( 'creator' ) ;
#213 = CIRCLE ( 'NONE', #53, 4.000000000000000000 ) ;
#214 = PERSON_AND_ORGANIZATION ( #39, #45 ) ;
#215 = DIRECTION ( 'NONE',  ( 1.000000000000000000, 0.000000000000000000, 0.000000000000000000 ) ) ;
#216 =( NAMED_UNIT ( * ) SI_UNIT ( $, .STERADIAN. ) SOLID_ANGLE_UNIT ( ) );
#217 = CALENDAR_DATE ( 2023, 12, 2 ) ;
#218 = EDGE_LOOP ( 'NONE', ( #105, #221 ) ) ;
#219 = EDGE_LOOP ( 'NONE', ( #109, #84, #183, #127 ) ) ;
#220 = PLANE ( 'NONE',  #203 ) ;
#221 = ORIENTED_EDGE ( 'NONE', *, *, #143, .T. ) ;
#222 = CARTESIAN_POINT ( 'NONE',  ( 0.000000000000000000, 0.000000000000000000, 3.000000000000000000 ) ) ;
#223 = LOCAL_TIME ( 13, 34, 30.00000000000000000, #121 ) ;
#224 = CC_DESIGN_DATE_AND_TIME_ASSIGNMENT ( #163, #85, ( #7 ) ) ;
#225 = FACE_OUTER_BOUND ( 'NONE', #9, .T. ) ;
#226 = FACE_OUTER_BOUND ( 'NONE', #128, .T. ) ;
#227 = APPROVAL ( #178, 'NEURÈENÝ' ) ;
#228 = DIRECTION ( 'NONE',  ( -1.000000000000000000, 0.000000000000000000, 0.000000000000000000 ) ) ;
#229 = DIRECTION ( 'NONE',  ( 1.000000000000000000, 0.000000000000000000, 0.000000000000000000 ) ) ;
#230 = APPROVAL_STATUS ( 'not_yet_approved' ) ;
#231 = PRODUCT ( '28dd', '28dd', '', ( #124 ) ) ;
#232 = DATE_AND_TIME ( #255, #152 ) ;
#233 = CIRCLE ( 'NONE', #66, 4.000000000000000000 ) ;
#234 = CALENDAR_DATE ( 2023, 12, 2 ) ;
#235 = CARTESIAN_POINT ( 'NONE',  ( 0.000000000000000000, 0.000000000000000000, 0.000000000000000000 ) ) ;
#236 = DATE_AND_TIME ( #36, #40 ) ;
#237 = APPROVAL ( #230, 'NEURÈENÝ' ) ;
#238 = EDGE_CURVE ( 'NONE', #186, #151, #56, .T. ) ;
#239 = ORIENTED_EDGE ( 'NONE', *, *, #238, .T. ) ;
#240 = EDGE_CURVE ( 'NONE', #187, #184, #34, .T. ) ;
#241 = ORIENTED_EDGE ( 'NONE', *, *, #87, .T. ) ;
#242 = VERTEX_POINT ( 'NONE', #161 ) ;
#243 = AXIS2_PLACEMENT_3D ( 'NONE', #14, #254, #28 ) ;
#244 = EDGE_LOOP ( 'NONE', ( #200, #241, #62, #108 ) ) ;
#245 = ORIENTED_EDGE ( 'NONE', *, *, #20, .T. ) ;
#246 = LINE ( 'NONE', #138, #41 ) ;
#247 = CC_DESIGN_SECURITY_CLASSIFICATION ( #7, ( #162 ) ) ;
#248 =( GEOMETRIC_REPRESENTATION_CONTEXT ( 3 ) GLOBAL_UNCERTAINTY_ASSIGNED_CONTEXT ( ( #96 ) ) GLOBAL_UNIT_ASSIGNED_CONTEXT ( ( #159, #22, #216 ) ) REPRESENTATION_CONTEXT ( 'NONE', 'WORKASPACE' ) );
#249 = DIRECTION ( 'NONE',  ( 0.000000000000000000, 0.000000000000000000, 1.000000000000000000 ) ) ;
#250 = CC_DESIGN_DATE_AND_TIME_ASSIGNMENT ( #236, #79, ( #27 ) ) ;
#251 = DIRECTION ( 'NONE',  ( 0.000000000000000000, 0.000000000000000000, 1.000000000000000000 ) ) ;
#252 = DESIGN_CONTEXT ( 'detailed design', #18, 'design' ) ;
#253 = CARTESIAN_POINT ( 'NONE',  ( 0.000000000000000000, 0.000000000000000000, 1000.000000000000000 ) ) ;
#254 = DIRECTION ( 'NONE',  ( 0.000000000000000000, 0.000000000000000000, 1.000000000000000000 ) ) ;
#255 = CALENDAR_DATE ( 2023, 12, 2 ) ;
ENDSEC;
END-ISO-10303-21;
