ISO-10303-21;
HEADER;
FILE_DESCRIPTION (( 'STEP AP203' ),
    '1' );
FILE_NAME ('978b.STEP',
    '2023-02-12T12:56:36',
    ( '' ),
    ( '' ),
    'SwSTEP 2.0',
    'SolidWorks 2019',
    '' );
FILE_SCHEMA (( 'CONFIG_CONTROL_DESIGN' ));
ENDSEC;

DATA;
#1 = ORIENTED_EDGE ( 'NONE', *, *, #120, .F. ) ;
#2 = CIRCLE ( 'NONE', #38, 1.500000000000000222 ) ;
#3 = ORIENTED_EDGE ( 'NONE', *, *, #85, .F. ) ;
#4 = VERTEX_POINT ( 'NONE', #82 ) ;
#5 = ORIENTED_EDGE ( 'NONE', *, *, #92, .F. ) ;
#6 = CC_DESIGN_DATE_AND_TIME_ASSIGNMENT ( #102, #125, ( #189 ) ) ;
#7 = DIRECTION ( 'NONE',  ( 1.000000000000000000, 0.000000000000000000, 0.000000000000000000 ) ) ;
#8 = FACE_OUTER_BOUND ( 'NONE', #18, .T. ) ;
#9 = EDGE_CURVE ( 'NONE', #141, #223, #203, .T. ) ;
#10 = FACE_BOUND ( 'NONE', #181, .T. ) ;
#11 = CARTESIAN_POINT ( 'NONE',  ( 0.000000000000000000, 0.000000000000000000, 1.500000000000000000 ) ) ;
#12 = AXIS2_PLACEMENT_3D ( 'NONE', #11, #70, #91 ) ;
#13 = FACE_OUTER_BOUND ( 'NONE', #186, .T. ) ;
#14 = APPLICATION_PROTOCOL_DEFINITION ( 'international standard', 'config_control_design', 1994, #220 ) ;
#15 = APPROVAL_DATE_TIME ( #200, #83 ) ;
#16 = CALENDAR_DATE ( 2023, 12, 2 ) ;
#17 = PERSON_AND_ORGANIZATION ( #158, #69 ) ;
#18 = EDGE_LOOP ( 'NONE', ( #5, #29, #122, #140 ) ) ;
#19 = EDGE_CURVE ( 'NONE', #166, #63, #59, .T. ) ;
#20 = COORDINATED_UNIVERSAL_TIME_OFFSET ( 1, 0, .AHEAD. ) ;
#21 = ORIENTED_EDGE ( 'NONE', *, *, #19, .T. ) ;
#22 = AXIS2_PLACEMENT_3D ( 'NONE', #74, #37, #138 ) ;
#23 = CC_DESIGN_APPROVAL ( #123, ( #226 ) ) ;
#24 = PERSON_AND_ORGANIZATION ( #158, #69 ) ;
#25 = ORIENTED_EDGE ( 'NONE', *, *, #180, .T. ) ;
#26 = PERSON_AND_ORGANIZATION ( #158, #69 ) ;
#27 = ORIENTED_EDGE ( 'NONE', *, *, #35, .F. ) ;
#28 = SHAPE_DEFINITION_REPRESENTATION ( #234, #40 ) ;
#29 = ORIENTED_EDGE ( 'NONE', *, *, #57, .F. ) ;
#30 = CARTESIAN_POINT ( 'NONE',  ( 0.000000000000000000, 0.000000000000000000, 1.500000000000000000 ) ) ;
#31 = CARTESIAN_POINT ( 'NONE',  ( 0.000000000000000000, 0.000000000000000000, 125.0000000000000000 ) ) ;
#32 = CARTESIAN_POINT ( 'NONE',  ( 0.000000000000000000, 0.000000000000000000, 125.0000000000000000 ) ) ;
#33 = CARTESIAN_POINT ( 'NONE',  ( -1.500000000000000222, 0.000000000000000000, 0.000000000000000000 ) ) ;
#34 = CYLINDRICAL_SURFACE ( 'NONE', #62, 1.500000000000000222 ) ;
#35 = EDGE_CURVE ( 'NONE', #227, #166, #192, .T. ) ;
#36 = PLANE ( 'NONE',  #216 ) ;
#37 = DIRECTION ( 'NONE',  ( -0.000000000000000000, -0.000000000000000000, -1.000000000000000000 ) ) ;
#38 = AXIS2_PLACEMENT_3D ( 'NONE', #73, #109, #7 ) ;
#39 = CC_DESIGN_DATE_AND_TIME_ASSIGNMENT ( #252, #178, ( #254 ) ) ;
#40 = ADVANCED_BREP_SHAPE_REPRESENTATION ( '978b', ( #165, #104 ), #124 ) ;
#41 = CYLINDRICAL_SURFACE ( 'NONE', #22, 1.500000000000000222 ) ;
#42 = EDGE_LOOP ( 'NONE', ( #44, #84 ) ) ;
#43 = EDGE_LOOP ( 'NONE', ( #243, #65 ) ) ;
#44 = ORIENTED_EDGE ( 'NONE', *, *, #180, .F. ) ;
#45 = CC_DESIGN_PERSON_AND_ORGANIZATION_ASSIGNMENT ( #75, #54, ( #177 ) ) ;
#46 = PERSON_AND_ORGANIZATION ( #158, #69 ) ;
#47 = AXIS2_PLACEMENT_3D ( 'NONE', #149, #93, #48 ) ;
#48 = DIRECTION ( 'NONE',  ( 1.000000000000000000, 0.000000000000000000, -0.000000000000000000 ) ) ;
#49 = CARTESIAN_POINT ( 'NONE',  ( 0.7500000000000001110, 9.184850993605150903E-17, 1.500000000000000000 ) ) ;
#50 = CARTESIAN_POINT ( 'NONE',  ( 0.000000000000000000, 0.000000000000000000, 1.500000000000000000 ) ) ;
#51 = DIRECTION ( 'NONE',  ( 0.000000000000000000, 0.000000000000000000, 1.000000000000000000 ) ) ;
#52 = CC_DESIGN_APPROVAL ( #127, ( #189 ) ) ;
#53 = DIRECTION ( 'NONE',  ( 1.000000000000000000, 0.000000000000000000, 0.000000000000000000 ) ) ;
#54 = PERSON_AND_ORGANIZATION_ROLE ( 'design_owner' ) ;
#55 = COORDINATED_UNIVERSAL_TIME_OFFSET ( 1, 0, .AHEAD. ) ;
#56 = FACE_OUTER_BOUND ( 'NONE', #244, .T. ) ;
#57 = EDGE_CURVE ( 'NONE', #105, #4, #239, .T. ) ;
#58 = COORDINATED_UNIVERSAL_TIME_OFFSET ( 1, 0, .AHEAD. ) ;
#59 = CIRCLE ( 'NONE', #153, 1.500000000000000222 ) ;
#60 =( NAMED_UNIT ( * ) PLANE_ANGLE_UNIT ( ) SI_UNIT ( $, .RADIAN. ) );
#61 = LOCAL_TIME ( 13, 56, 36.00000000000000000, #55 ) ;
#62 = AXIS2_PLACEMENT_3D ( 'NONE', #173, #230, #111 ) ;
#63 = VERTEX_POINT ( 'NONE', #33 ) ;
#64 = PERSON_AND_ORGANIZATION_ROLE ( 'design_supplier' ) ;
#65 = ORIENTED_EDGE ( 'NONE', *, *, #228, .T. ) ;
#66 = ORIENTED_EDGE ( 'NONE', *, *, #9, .F. ) ;
#67 = CARTESIAN_POINT ( 'NONE',  ( 0.000000000000000000, 0.000000000000000000, 125.0000000000000000 ) ) ;
#68 = CARTESIAN_POINT ( 'NONE',  ( 0.000000000000000000, 0.000000000000000000, 1.500000000000000000 ) ) ;
#69 = ORGANIZATION ( 'NEURÈENÝ', 'NEURÈENÝ', '' ) ;
#70 = DIRECTION ( 'NONE',  ( 0.000000000000000000, 0.000000000000000000, 1.000000000000000000 ) ) ;
#71 = LINE ( 'NONE', #147, #72 ) ;
#72 = VECTOR ( 'NONE', #151, 1000.000000000000000 ) ;
#73 = CARTESIAN_POINT ( 'NONE',  ( 0.000000000000000000, 0.000000000000000000, 0.000000000000000000 ) ) ;
#74 = CARTESIAN_POINT ( 'NONE',  ( 0.000000000000000000, 0.000000000000000000, 1.500000000000000000 ) ) ;
#75 = PERSON_AND_ORGANIZATION ( #158, #69 ) ;
#76 = DIRECTION ( 'NONE',  ( 1.000000000000000000, 0.000000000000000000, 0.000000000000000000 ) ) ;
#77 = APPROVAL_PERSON_ORGANIZATION ( #17, #83, #94 ) ;
#78 = CARTESIAN_POINT ( 'NONE',  ( 0.000000000000000000, 0.000000000000000000, 0.000000000000000000 ) ) ;
#79 = EDGE_CURVE ( 'NONE', #105, #223, #148, .T. ) ;
#80 = PERSON_AND_ORGANIZATION_ROLE ( 'creator' ) ;
#81 = PERSON_AND_ORGANIZATION_ROLE ( 'classification_officer' ) ;
#82 = CARTESIAN_POINT ( 'NONE',  ( 0.7500000000000001110, 9.184850993605150903E-17, 125.0000000000000000 ) ) ;
#83 = APPROVAL ( #117, 'NEURÈENÝ' ) ;
#84 = ORIENTED_EDGE ( 'NONE', *, *, #19, .F. ) ;
#85 = EDGE_CURVE ( 'NONE', #101, #63, #71, .T. ) ;
#86 = DIRECTION ( 'NONE',  ( -0.000000000000000000, -0.000000000000000000, -1.000000000000000000 ) ) ;
#87 = CIRCLE ( 'NONE', #12, 0.7500000000000001110 ) ;
#88 = FACE_OUTER_BOUND ( 'NONE', #43, .T. ) ;
#89 = DIRECTION ( 'NONE',  ( -0.000000000000000000, -0.000000000000000000, -1.000000000000000000 ) ) ;
#90 = APPLICATION_CONTEXT ( 'configuration controlled 3d designs of mechanical parts and assemblies' ) ;
#91 = DIRECTION ( 'NONE',  ( 1.000000000000000000, 0.000000000000000000, 0.000000000000000000 ) ) ;
#92 = EDGE_CURVE ( 'NONE', #4, #141, #196, .T. ) ;
#93 = DIRECTION ( 'NONE',  ( 0.000000000000000000, 0.000000000000000000, 1.000000000000000000 ) ) ;
#94 = APPROVAL_ROLE ( '' ) ;
#95 = PERSON_AND_ORGANIZATION ( #158, #69 ) ;
#96 = DESIGN_CONTEXT ( 'detailed design', #220, 'design' ) ;
#97 = UNCERTAINTY_MEASURE_WITH_UNIT (LENGTH_MEASURE( 1.000000000000000082E-05 ), #250, 'distance_accuracy_value', 'NONE');
#98 = DIRECTION ( 'NONE',  ( -1.000000000000000000, 0.000000000000000000, 0.000000000000000000 ) ) ;
#99 = COORDINATED_UNIVERSAL_TIME_OFFSET ( 1, 0, .AHEAD. ) ;
#100 = CALENDAR_DATE ( 2023, 12, 2 ) ;
#101 = VERTEX_POINT ( 'NONE', #229 ) ;
#102 = DATE_AND_TIME ( #100, #129 ) ;
#103 = ORIENTED_EDGE ( 'NONE', *, *, #57, .T. ) ;
#104 = AXIS2_PLACEMENT_3D ( 'NONE', #78, #236, #197 ) ;
#105 = VERTEX_POINT ( 'NONE', #135 ) ;
#106 = CC_DESIGN_APPROVAL ( #83, ( #254 ) ) ;
#107 = DIRECTION ( 'NONE',  ( 0.000000000000000000, 0.000000000000000000, 1.000000000000000000 ) ) ;
#108 = CYLINDRICAL_SURFACE ( 'NONE', #110, 0.7500000000000001110 ) ;
#109 = DIRECTION ( 'NONE',  ( 0.000000000000000000, 0.000000000000000000, 1.000000000000000000 ) ) ;
#110 = AXIS2_PLACEMENT_3D ( 'NONE', #231, #128, #191 ) ;
#111 = DIRECTION ( 'NONE',  ( -1.000000000000000000, 0.000000000000000000, 0.000000000000000000 ) ) ;
#112 = DIRECTION ( 'NONE',  ( -0.000000000000000000, -0.000000000000000000, -1.000000000000000000 ) ) ;
#113 = DIRECTION ( 'NONE',  ( 0.000000000000000000, 0.000000000000000000, 1.000000000000000000 ) ) ;
#114 = ADVANCED_FACE ( 'NONE', ( #13 ), #34, .T. ) ;
#115 = AXIS2_PLACEMENT_3D ( 'NONE', #116, #113, #76 ) ;
#116 = CARTESIAN_POINT ( 'NONE',  ( 0.000000000000000000, 0.000000000000000000, 1.500000000000000000 ) ) ;
#117 = APPROVAL_STATUS ( 'not_yet_approved' ) ;
#118 = AXIS2_PLACEMENT_3D ( 'NONE', #67, #245, #169 ) ;
#119 =( NAMED_UNIT ( * ) SI_UNIT ( $, .STERADIAN. ) SOLID_ANGLE_UNIT ( ) );
#120 = EDGE_CURVE ( 'NONE', #101, #227, #131, .T. ) ;
#121 = CALENDAR_DATE ( 2023, 12, 2 ) ;
#122 = ORIENTED_EDGE ( 'NONE', *, *, #79, .T. ) ;
#123 = APPROVAL ( #253, 'NEURÈENÝ' ) ;
#124 =( GEOMETRIC_REPRESENTATION_CONTEXT ( 3 ) GLOBAL_UNCERTAINTY_ASSIGNED_CONTEXT ( ( #97 ) ) GLOBAL_UNIT_ASSIGNED_CONTEXT ( ( #250, #60, #119 ) ) REPRESENTATION_CONTEXT ( 'NONE', 'WORKASPACE' ) );
#125 = DATE_TIME_ROLE ( 'classification_date' ) ;
#126 = VECTOR ( 'NONE', #247, 1000.000000000000000 ) ;
#127 = APPROVAL ( #142, 'NEURÈENÝ' ) ;
#128 = DIRECTION ( 'NONE',  ( -0.000000000000000000, -0.000000000000000000, -1.000000000000000000 ) ) ;
#129 = LOCAL_TIME ( 13, 56, 36.00000000000000000, #160 ) ;
#130 = CARTESIAN_POINT ( 'NONE',  ( 1.500000000000000222, 1.836970198721030181E-16, 0.000000000000000000 ) ) ;
#131 = CIRCLE ( 'NONE', #217, 1.500000000000000222 ) ;
#132 = FACE_OUTER_BOUND ( 'NONE', #206, .T. ) ;
#133 = EDGE_CURVE ( 'NONE', #4, #105, #214, .T. ) ;
#134 = DIRECTION ( 'NONE',  ( 1.000000000000000000, 0.000000000000000000, 0.000000000000000000 ) ) ;
#135 = CARTESIAN_POINT ( 'NONE',  ( -0.7500000000000001110, 0.000000000000000000, 125.0000000000000000 ) ) ;
#136 = DIRECTION ( 'NONE',  ( 1.000000000000000000, 0.000000000000000000, -0.000000000000000000 ) ) ;
#137 = CIRCLE ( 'NONE', #115, 1.500000000000000222 ) ;
#138 = DIRECTION ( 'NONE',  ( -1.000000000000000000, 0.000000000000000000, 0.000000000000000000 ) ) ;
#139 = CC_DESIGN_PERSON_AND_ORGANIZATION_ASSIGNMENT ( #46, #80, ( #226 ) ) ;
#140 = ORIENTED_EDGE ( 'NONE', *, *, #159, .T. ) ;
#141 = VERTEX_POINT ( 'NONE', #49 ) ;
#142 = APPROVAL_STATUS ( 'not_yet_approved' ) ;
#143 = AXIS2_PLACEMENT_3D ( 'NONE', #32, #89, #98 ) ;
#144 = ORIENTED_EDGE ( 'NONE', *, *, #159, .F. ) ;
#145 = ORIENTED_EDGE ( 'NONE', *, *, #228, .F. ) ;
#146 = CLOSED_SHELL ( 'NONE', ( #199, #114, #225, #188, #212, #176, #168 ) ) ;
#147 = CARTESIAN_POINT ( 'NONE',  ( -1.500000000000000222, 0.000000000000000000, 1.500000000000000000 ) ) ;
#148 = LINE ( 'NONE', #172, #126 ) ;
#149 = CARTESIAN_POINT ( 'NONE',  ( 0.000000000000000000, 0.000000000000000000, 125.0000000000000000 ) ) ;
#150 = AXIS2_PLACEMENT_3D ( 'NONE', #68, #190, #134 ) ;
#151 = DIRECTION ( 'NONE',  ( -0.000000000000000000, -0.000000000000000000, -1.000000000000000000 ) ) ;
#152 = CC_DESIGN_PERSON_AND_ORGANIZATION_ASSIGNMENT ( #204, #81, ( #189 ) ) ;
#153 = AXIS2_PLACEMENT_3D ( 'NONE', #171, #233, #53 ) ;
#154 = PERSON_AND_ORGANIZATION ( #158, #69 ) ;
#155 = MECHANICAL_CONTEXT ( 'NONE', #90, 'mechanical' ) ;
#156 = APPLICATION_PROTOCOL_DEFINITION ( 'international standard', 'config_control_design', 1994, #90 ) ;
#157 = SECURITY_CLASSIFICATION_LEVEL ( 'unclassified' ) ;
#158 = PERSON ( 'NEURÈENÝ', 'NEURÈENÝ', 'NEURÈENÝ', ('NEURÈENÝ'), ('NEURÈENÝ'), ('NEURÈENÝ') ) ;
#159 = EDGE_CURVE ( 'NONE', #223, #141, #87, .T. ) ;
#160 = COORDINATED_UNIVERSAL_TIME_OFFSET ( 1, 0, .AHEAD. ) ;
#161 = ORIENTED_EDGE ( 'NONE', *, *, #9, .T. ) ;
#162 = EDGE_LOOP ( 'NONE', ( #103, #240 ) ) ;
#163 = LOCAL_TIME ( 13, 56, 36.00000000000000000, #99 ) ;
#164 = CC_DESIGN_PERSON_AND_ORGANIZATION_ASSIGNMENT ( #95, #174, ( #254 ) ) ;
#165 = MANIFOLD_SOLID_BREP ( 'Pøidat vysunutím3', #146 ) ;
#166 = VERTEX_POINT ( 'NONE', #130 ) ;
#167 = DIRECTION ( 'NONE',  ( 1.000000000000000000, 0.000000000000000000, -0.000000000000000000 ) ) ;
#168 = ADVANCED_FACE ( 'NONE', ( #249 ), #209, .T. ) ;
#169 = DIRECTION ( 'NONE',  ( 1.000000000000000000, 0.000000000000000000, 0.000000000000000000 ) ) ;
#170 = APPROVAL_PERSON_ORGANIZATION ( #154, #123, #238 ) ;
#171 = CARTESIAN_POINT ( 'NONE',  ( 0.000000000000000000, 0.000000000000000000, 0.000000000000000000 ) ) ;
#172 = CARTESIAN_POINT ( 'NONE',  ( -0.7500000000000001110, 0.000000000000000000, 125.0000000000000000 ) ) ;
#173 = CARTESIAN_POINT ( 'NONE',  ( 0.000000000000000000, 0.000000000000000000, 1.500000000000000000 ) ) ;
#174 = PERSON_AND_ORGANIZATION_ROLE ( 'creator' ) ;
#175 = CARTESIAN_POINT ( 'NONE',  ( 1.500000000000000222, 1.836970198721030181E-16, 1.500000000000000000 ) ) ;
#176 = ADVANCED_FACE ( 'NONE', ( #8 ), #108, .T. ) ;
#177 = PRODUCT ( '978b', '978b', '', ( #155 ) ) ;
#178 = DATE_TIME_ROLE ( 'creation_date' ) ;
#179 = CALENDAR_DATE ( 2023, 12, 2 ) ;
#180 = EDGE_CURVE ( 'NONE', #63, #166, #2, .T. ) ;
#181 = EDGE_LOOP ( 'NONE', ( #144, #66 ) ) ;
#182 = AXIS2_PLACEMENT_3D ( 'NONE', #30, #107, #167 ) ;
#183 = DATE_AND_TIME ( #121, #235 ) ;
#184 = LOCAL_TIME ( 13, 56, 36.00000000000000000, #58 ) ;
#185 = APPROVAL_DATE_TIME ( #222, #123 ) ;
#186 = EDGE_LOOP ( 'NONE', ( #145, #242, #21, #3 ) ) ;
#187 = APPROVAL_ROLE ( '' ) ;
#188 = ADVANCED_FACE ( 'NONE', ( #10, #88 ), #208, .T. ) ;
#189 = SECURITY_CLASSIFICATION ( '', '', #157 ) ;
#190 = DIRECTION ( 'NONE',  ( 0.000000000000000000, 0.000000000000000000, 1.000000000000000000 ) ) ;
#191 = DIRECTION ( 'NONE',  ( -1.000000000000000000, 0.000000000000000000, 0.000000000000000000 ) ) ;
#192 = LINE ( 'NONE', #232, #251 ) ;
#193 = DIRECTION ( 'NONE',  ( 1.000000000000000000, 0.000000000000000000, 0.000000000000000000 ) ) ;
#194 = CC_DESIGN_PERSON_AND_ORGANIZATION_ASSIGNMENT ( #26, #64, ( #226 ) ) ;
#195 = VECTOR ( 'NONE', #86, 1000.000000000000000 ) ;
#196 = LINE ( 'NONE', #211, #195 ) ;
#197 = DIRECTION ( 'NONE',  ( 1.000000000000000000, 0.000000000000000000, 0.000000000000000000 ) ) ;
#198 = CALENDAR_DATE ( 2023, 12, 2 ) ;
#199 = ADVANCED_FACE ( 'NONE', ( #132 ), #210, .T. ) ;
#200 = DATE_AND_TIME ( #198, #61 ) ;
#201 = CC_DESIGN_SECURITY_CLASSIFICATION ( #189, ( #226 ) ) ;
#202 = CARTESIAN_POINT ( 'NONE',  ( -0.7500000000000001110, 0.000000000000000000, 1.500000000000000000 ) ) ;
#203 = CIRCLE ( 'NONE', #150, 0.7500000000000001110 ) ;
#204 = PERSON_AND_ORGANIZATION ( #158, #69 ) ;
#205 = ORIENTED_EDGE ( 'NONE', *, *, #85, .T. ) ;
#206 = EDGE_LOOP ( 'NONE', ( #207, #224, #161, #241 ) ) ;
#207 = ORIENTED_EDGE ( 'NONE', *, *, #133, .F. ) ;
#208 = PLANE ( 'NONE',  #182 ) ;
#209 = PLANE ( 'NONE',  #47 ) ;
#210 = CYLINDRICAL_SURFACE ( 'NONE', #143, 0.7500000000000001110 ) ;
#211 = CARTESIAN_POINT ( 'NONE',  ( 0.7500000000000001110, 9.184850993605150903E-17, 125.0000000000000000 ) ) ;
#212 = ADVANCED_FACE ( 'NONE', ( #215 ), #36, .F. ) ;
#213 = DIRECTION ( 'NONE',  ( 0.000000000000000000, 0.000000000000000000, 1.000000000000000000 ) ) ;
#214 = CIRCLE ( 'NONE', #248, 0.7500000000000001110 ) ;
#215 = FACE_OUTER_BOUND ( 'NONE', #42, .T. ) ;
#216 = AXIS2_PLACEMENT_3D ( 'NONE', #219, #237, #136 ) ;
#217 = AXIS2_PLACEMENT_3D ( 'NONE', #50, #51, #193 ) ;
#218 = PRODUCT_RELATED_PRODUCT_CATEGORY ( 'detail', '', ( #177 ) ) ;
#219 = CARTESIAN_POINT ( 'NONE',  ( 0.000000000000000000, 0.000000000000000000, 0.000000000000000000 ) ) ;
#220 = APPLICATION_CONTEXT ( 'configuration controlled 3d designs of mechanical parts and assemblies' ) ;
#221 = APPROVAL_PERSON_ORGANIZATION ( #24, #127, #187 ) ;
#222 = DATE_AND_TIME ( #179, #184 ) ;
#223 = VERTEX_POINT ( 'NONE', #202 ) ;
#224 = ORIENTED_EDGE ( 'NONE', *, *, #92, .T. ) ;
#225 = ADVANCED_FACE ( 'NONE', ( #56 ), #41, .T. ) ;
#226 = PRODUCT_DEFINITION_FORMATION_WITH_SPECIFIED_SOURCE ( 'LIBOVOLNÝ', '', #177, .NOT_KNOWN. ) ;
#227 = VERTEX_POINT ( 'NONE', #175 ) ;
#228 = EDGE_CURVE ( 'NONE', #227, #101, #137, .T. ) ;
#229 = CARTESIAN_POINT ( 'NONE',  ( -1.500000000000000222, 0.000000000000000000, 1.500000000000000000 ) ) ;
#230 = DIRECTION ( 'NONE',  ( -0.000000000000000000, -0.000000000000000000, -1.000000000000000000 ) ) ;
#231 = CARTESIAN_POINT ( 'NONE',  ( 0.000000000000000000, 0.000000000000000000, 125.0000000000000000 ) ) ;
#232 = CARTESIAN_POINT ( 'NONE',  ( 1.500000000000000222, 1.836970198721030181E-16, 1.500000000000000000 ) ) ;
#233 = DIRECTION ( 'NONE',  ( 0.000000000000000000, 0.000000000000000000, 1.000000000000000000 ) ) ;
#234 = PRODUCT_DEFINITION_SHAPE ( 'NONE', 'NONE',  #254 ) ;
#235 = LOCAL_TIME ( 13, 56, 36.00000000000000000, #20 ) ;
#236 = DIRECTION ( 'NONE',  ( 0.000000000000000000, 0.000000000000000000, 1.000000000000000000 ) ) ;
#237 = DIRECTION ( 'NONE',  ( 0.000000000000000000, 0.000000000000000000, 1.000000000000000000 ) ) ;
#238 = APPROVAL_ROLE ( '' ) ;
#239 = CIRCLE ( 'NONE', #118, 0.7500000000000001110 ) ;
#240 = ORIENTED_EDGE ( 'NONE', *, *, #133, .T. ) ;
#241 = ORIENTED_EDGE ( 'NONE', *, *, #79, .F. ) ;
#242 = ORIENTED_EDGE ( 'NONE', *, *, #35, .T. ) ;
#243 = ORIENTED_EDGE ( 'NONE', *, *, #120, .T. ) ;
#244 = EDGE_LOOP ( 'NONE', ( #27, #1, #205, #25 ) ) ;
#245 = DIRECTION ( 'NONE',  ( 0.000000000000000000, 0.000000000000000000, 1.000000000000000000 ) ) ;
#246 = DIRECTION ( 'NONE',  ( 1.000000000000000000, 0.000000000000000000, 0.000000000000000000 ) ) ;
#247 = DIRECTION ( 'NONE',  ( -0.000000000000000000, -0.000000000000000000, -1.000000000000000000 ) ) ;
#248 = AXIS2_PLACEMENT_3D ( 'NONE', #31, #213, #246 ) ;
#249 = FACE_OUTER_BOUND ( 'NONE', #162, .T. ) ;
#250 =( LENGTH_UNIT ( ) NAMED_UNIT ( * ) SI_UNIT ( .MILLI., .METRE. ) );
#251 = VECTOR ( 'NONE', #112, 1000.000000000000000 ) ;
#252 = DATE_AND_TIME ( #16, #163 ) ;
#253 = APPROVAL_STATUS ( 'not_yet_approved' ) ;
#254 = PRODUCT_DEFINITION ( 'NEZNÁMÝ', '', #226, #96 ) ;
#255 = APPROVAL_DATE_TIME ( #183, #127 ) ;
ENDSEC;
END-ISO-10303-21;
